Song name
# A B C D E F G H I J K L M N O P Q R S T U V W X Y Z

Mando Diao - Maybe Just Sad tab

Band: Mando Diao
Album: Give Me Fire
Year: 2009
Song: Maybe Just Sad
Track: 06
Tabber: Paul Bischof

It's the Intro and the Solo.
It's my first Tab, but I think it's very close to th orginal.

enjoy it....

*play smooth
~ vibrato
b bent
r release
/ slide
h hammer on

Intro:
e|-----------------|------------------------------------------------|
H|------------10*--|------------------------------------------------|
G|-----------------|------------------------------------------------|
D|---9*~~~---------|--12---------------12br-x4--13/12---------------|
A|-----------------|-----12--12--12-12-----------------12--12--12---|
E|-----------------|------------------------------------------------|


Solo:
e|----------------------------------------------------------------|
H|---121212-12-12-1212-12-12-14-15-17-19-191919-19-19-19-191919---|
G|----------------------------------------------------------------|
D|----------------------------------------------------------------|
A|----------------------------------------------------------------|
E|----------------------------------------------------------------|

e|--------------------------------------------------------------|
H|---19/20-19-17-19-x6-19-17-19-17-15-17-15-14-15-14-12-14-12---|
G|--------------------------------------------------------------|
D|--------------------------------------------------------------|
A|--------------------------------------------------------------|
E|--------------------------------------------------------------|

e|-----------------------------------------------------------|
H|---10/11/10--10-----x4--10---9-7^8^7-5-7-------------------|
G|---------- 12---12------12b--------------7-9-11-12-14-12---|
D|-----------------------------------------------------------|
A|-----------------------------------------------------------|
E|-----------------------------------------------------------|

e|-----------------------------------|
H|------------------------------19---|
G|---12h14-12-11-12-14-15-17-19------|
D|-----------------------------------|
A|-----------------------------------|
E|-----------------------------------|


Tap to rate this tab
# A B C D E F G H I J K L M N O P Q R S T U V W X Y Z