Song name
# A B C D E F G H I J K L M N O P Q R S T U V W X Y Z

Mando Diao - Dance With Somebody tab

-----------------------------------------------------------------------------
	          Dance With Somebody Into - Mando Diao
-----------------------------------------------------------------------------
Tabbed by: Chontamenti
eMail: Wolfguitar@gmx.de

Tuning: Standard


This is my first attempt at tabbing. It's for the keyboard part of the
intro transcribed to guitar. Try to let the notes ring out and add slides
and vibratos where you think it fits (I gave some suggestions in the tab itself).
Just listen to the record and you get the idea.


e|-------------------------------------------------------------------|
B|-------------------------------------------------------------------|
G|-------------------------------------------------------------------|
D|------------------------1--2--/4~---2-1~---------------------------|
A|-----------------2-4~--------------------4-------------------------|
E|---0-2~---4-5~------------------------------4~---------------------|

e|-------------------------------------------------------------------|
B|-------------------------------------------------------------------|
G|-------------------------------------------------------------------|
D|-----2-/4~---2-1~-----1-2---4---1-1-1-1-1-1-1-1-1-1-1-1-1-1-1-1----|
A|---0--------------4------------------------------------------------|
E|-------------------------------------------------------------------|

e|-------------------------------------------------------------------|
B|-------------------------------------------------------------------|
G|---2-1-2-1-2-1-2-1-2-1-2-1-2-1-2-/4-/6---4--6--4--\1---0---0-1-----|  X 2
D|---------------------------------------------------------2---------|
A|-------------------------------------------------------------------|
E|-------------------------------------------------------------------|

e|-----------0--2--4--5--7--9--\4---4h5p4-2-4-2-0--------------------|
B|------/2----------------------------------------4-2----------------|
G|---1---------------------------------------------------------------|
D|-------------------------------------------------------------------|
A|-------------------------------------------------------------------|
E|-------------------------------------------------------------------|


| /  slide up
| \  slide down
| h  hammer-on
| p  pull-off
| ~  vibrato


That's it so far for the intro, you can find good tabs for the chorus on this very site 
Hope you enjoyed it.

=============================================================================
Tap to rate this tab
# A B C D E F G H I J K L M N O P Q R S T U V W X Y Z