Song name
# A B C D E F G H I J K L M N O P Q R S T U V W X Y Z

Mando Diao - Give Me Fire tab

Intro for "Give me fire" by Mando diao.

The Guitar starts like this.
       A              D          A           D
e|----------------------------------------------------|
b|----------------------------------------------------|
g|----------------------------------------------------|
d|---------------------9----------------------9-7-----|
a|------3-7----------8----------3-7---------8---------|
E|----5-----------10----------5----------10-----------|

Second Part.
      A         D                A           D
e|----------------------------------------------------|
b|------------------12-------------------12-10--------|
g|-----5-9-------10---------5-9-------10--------------|
d|---7--------12----------7---------12----------------|
a|----------------------------------------------------|
E|----------------------------------------------------|
Tap to rate this tab
 
# A B C D E F G H I J K L M N O P Q R S T U V W X Y Z