Song name
# A B C D E F G H I J K L M N O P Q R S T U V W X Y Z

Mando Diao - Dance With Somebody Acoustic tab

Hey to All Fans of Mando Diao,
This is my first tab, I've ever done.
I translated the piano part into a guitar tab. I hope, it is correct and you enjoy playing.


Artist: Mando Diao
Song: Dance with Somebody
Album: Gloria
Tabber: Henrik N.

Chords you need:

      Em        G       Bm
e|-----0--------3--------2--------------------------------------------|
B|-----0--------3--------3--------------------------------------------|
G|-----0--------4--------4--------------------------------------------|
D|-----2--------5--------4--------------------------------------------|
A|-----2--------5--------2--------------------------------------------|
E|-----0--------3--------2--------------------------------------------|

Riff 1
e|-2-3-2-3-2-3-2-3-5-7--5-7-5-2--1-----1-2----------------------------|
B|----------------------------------3---------------------------------|
G|--------------------------------------------------------------------|
D|--------------------------------------------------------------------|
A|--------------------------------------------------------------------|
E|--------------------------------------------------------------------|

Riff2
e|-2-3-2-3-2-3-2-3-5-7--5-7-9-2--1-----1-2---2-1----2-3---------------|
B|----------------------------------3------------3--------------------|
G|--------------------------------------------------------------------|
D|--------------------------------------------------------------------|
A|--------------------------------------------------------------------|
E|--------------------------------------------------------------------|

Riff3

e|--2-1----2-3----------------------|
B|------3------3--------------------|
G|----------------------------------|
D|----------------------------------|
A|----------------------------------|
E|----------------------------------|


Verse:
Em
Break your happy home
G                    Bm
learn to sing alone to the music, to the music
Em
Clap your hands and shake
G                 Bm
on a summer's day to the music, to the music

Chorus:
Em
I'm falling in love with your favorite song
G
I'm gonna sing it all night long
Bm
I'm gonna dance with somebody
Bm
dance with somebody
Bm
dance dance dance

Em
I'm falling in love with your favorite song
G
I'm gonna sing it all night long
Bm
I'm gonna dance with somebody
Bm
dance with somebody
Bm
dance dance dance

Em --------     Riff1
G
(I'm gonna dance with somebody)
Bm -------      Riff3

Em
When you're all alone
G                    Bm
we become your home, we're the music, we're the music
Em
When your love's away
G                      Bm
and your feel betrayed we're the music, sweet music!

Chorus:
Em
I'm falling in love with your favorite song
G
I'm gonna sing it all night long
Bm
I'm gonna dance with somebody
Bm
dance with somebody
Bm
dance dance dance

Chorus:
Em
I'm falling in love with your favorite song
G
I'm gonna sing it all night long
Bm
I'm gonna dance with somebody
Bm
dance with somebody
Bm
dance dance dance


Em    G      Bm (This chord is played very long)
dance, dance
Em    G      Bm (This chord is played very long)
dance (dance)
Em    G      Bm (This chord is played very long)
dance, dance 

Ooooooooooooooh
Ooooooooooooooh

Yeah

Chorus:
Em
I'm falling in love with your favorite song
G
I'm gonna sing it all night long
Bm
I'm gonna dance with somebody
Bm
dance with somebody
Bm
dance dance dance

Chorus:
Em
I'm falling in love with your favorite song
G
I'm gonna sing it all night long
Bm
I'm gonna dance with somebody
Bm
dance with somebody
Bm
dance dance dance

Chorus:
Em
I'm falling in love with your favorite song
G
I'm gonna sing it all night long
Bm
I'm gonna dance with somebody
Bm
dance with somebody
Bm
dance dance dance

Chorus:
Em
I'm falling in love with your favorite song
G
I'm gonna sing it all night long
Bm
I'm gonna dance with somebody
Bm
dance with somebody
Bm
dance dance dance

End on Em
Tap to rate this tab
# A B C D E F G H I J K L M N O P Q R S T U V W X Y Z