Song name
# A B C D E F G H I J K L M N O P Q R S T U V W X Y Z

Mando Diao - How We Walk tab

-------------------------------------------------------------------------------
			     How We Walk - Mando Diao
-------------------------------------------------------------------------------
Tabbed by: Tioloco
Email:xavilongo@hotmail.com

Tuning:EADGBe

I have tried to transcribe what the Acoustic guitar does during the intro, the other 
has been already tabbed. I think there might be a few mistakes, but I tried my best and did 
I could. I hope it, at least, helps ;)

e|--------2---------2--------3--------3-----------3------------2-----3-------|
B|--3-----3---------2--------3--------3-----3-----3------------2-----3--3----|
G|-----2---------2-----------------4-----------4------------2----------------|
D|--0----------------------5-------------5------------------------------0----|
A|----------------------5-------------------5--------------------------------|
E|------------2---------3-----------------------------0--2--------3-----3----|
Tap to rate this tab
# A B C D E F G H I J K L M N O P Q R S T U V W X Y Z