Song name
# A B C D E F G H I J K L M N O P Q R S T U V W X Y Z

Mando Diao - Dance With Somebody tab

e|-------------------------------------------------------------------|
B|-------------------------------------------------------------------|
G|-------------------------------------------------------------------|
D|-------------------------------------------------------------------|
A|----------------4----5---7---9----9--7---5--4----------------------|
E|---0-2----4-5------------------------------------------------------|

e|-------------------------------------------------------------------|
B|-------------------------------------------------------------------|
G|-------------------------------------------------------------------|
D|-------------------------------------------------------------------|
A|--44444444444444444444444444444444----7-9----9--7------------------|
E|-------------------------------------------------------------------|


e|-------------------------------------------------------------------|
B|-------------------------------------------------------------------|
G|-------------------------------------------------------------------|
D|-------------------------------------------------------------------|
A|---444444444444--------77777777-----9999999999999999---------------|
E|-------------------------------------------------------------------|

e|-------------------------------------------------------------------|
B|-------------------------------------------------------------------|
G|-------------------------------------------------------------------|
D|--5-4-5-4-5-4-5-4-5-4-5-4-5-4-5-7-9------7--9---7--5---4--2--4--6--|
A|-------------------------------------------------------------------|
E|-------------------------------------------------------------------|

e|-------------------------------------------------------------------|
B|-------------------------------------------------------------------|
G|-------------------------------------------------------------------|
D|--7-6-7-6-7-6-7-6-7-6-7-6-7-6-7-9-11-----9--11--9--6---5---3---5--7|
A|-------------------------------------------------------------------|
E|-------------------------------------------------------------------|


that's my version...
hope you like it:)
Tap to rate this tab
# A B C D E F G H I J K L M N O P Q R S T U V W X Y Z