Song name
# A B C D E F G H I J K L M N O P Q R S T U V W X Y Z

Mando Diao - White Wall tab

intro:
--------------------------------------------------------|
--------------------6--6--------------------------------|
--7-7-7-7-7-7-7-7-7---7---9-5-5-5-5-5-6-9---------------|
--------------------------------------------------------|
--------------------------------------------------------|
--------------------------------------------------------|

-------------------------------------------------------|
--------------------6--6--8----------------------------|
--7-7-7-7-7-7-7-7-7--7-----9--6-6-6-6-7-9--------------|
-------------------------------------------------------|
-------------------------------------------------------|
-------------------------------------------------------|

verse:
----------------------------------------|  x2
----------------------------------------|
--7-7-7-7-7-7-7-------------------------|
--7-7-7-7-7-7-7--10-10-10-10-10-10-10---|
--5-5-5-5-5-5-5--10-10-10-10-10-10-10---|
------------------8--8--8--8--8--8--8---|
yellow burning thing it's a dirty sin i know
i'm on the pavement on my own mind, it's silly

--------------------x3               ----------------|x2
--------------------                 ----------------|
-----------7-7-7-7--                 ----------------|
--5-5-5-5--7-7-7-7--                 7-7-7-7-7-7-7-7-|
--5-5-5-5--5-5-5-5--                 7-7-7-7-7-7-7-7-|
--3-3-3-3-----------                 5-5-5-5-5-5-5-5-|
silly as the weather June,           and i'm down
March or December                    yes i'm down
Silly as a man can be

chorus:
---------------------------------------------x2 -------------------|
---------------------------------------------   -------------------|
--7-7-------7-7------------------------------   -----------7-7-7-7-|
--7-7--8-8--7-7--8-8--10-10-10-10-10-10-10-10   --7-7-7-7--7-7-7-7-|
--5-5--8-8--5-5--8-8--10-10-10-10-10-10-10-10   --7-7-7-7--5-5-5-5-|
-------6-6-------6-6---8--8--8--8--8--8--8--8   --5-5-5-5----------|
And I sang my... La la teacher,
my la la teacher for you                    And I watched my little
                                             Baby from the seaside
(I'm coming on the window)
My la la teacher, my la la teacher for you
(I'm coming on the window again)

--------------------------------------------------------|
--------------------6--6--------------------------------|
--7-7-7-7-7-7-7-7-7---7---9-5-5-5-5-5-6-9---------------|
--------------------------------------------------------|
--------------------------------------------------------|
--------------------------------------------------------|

-------------------------------------------------------|
--------------------6--6--8----------------------------|
--7-7-7-7-7-7-7-7-7--7-----9--6-6-6-6-7-9--------------|
-------------------------------------------------------|
-------------------------------------------------------|
-------------------------------------------------------|

verse:
----------------------------------------|  x2
----------------------------------------|
--7-7-7-7-7-7-7-------------------------|
--7-7-7-7-7-7-7--10-10-10-10-10-10-10---|
--5-5-5-5-5-5-5--10-10-10-10-10-10-10---|
------------------8--8--8--8--8--8--8---|
Do you remember, the days when we were young
All tied up by a teacher's hand

--------------------x3               ----------------|x2
--------------------                 ----------------|
-----------7-7-7-7--                 ----------------|
--5-5-5-5--7-7-7-7--                 7-7-7-7-7-7-7-7-|
--5-5-5-5--5-5-5-5--                 7-7-7-7-7-7-7-7-|
--3-3-3-3-----------                 5-5-5-5-5-5-5-5-|
I was too shy and they said you're   and so was I, yeah so was I
too dry,but I didn't notice
Flowers were hot in
the cold winter night

chorus:
---------------------------------------------x2 -------------------|x3
---------------------------------------------   -------------------|
--7-7-------7-7------------------------------   -----------7-7-7-7-|
--7-7--8-8--7-7--8-8--10-10-10-10-10-10-10-10   --7-7-7-7--7-7-7-7-|
--5-5--8-8--5-5--8-8--10-10-10-10-10-10-10-10   --7-7-7-7--5-5-5-5-|
-------6-6-------6-6---8--8--8--8--8--8--8--8   --5-5-5-5----------|
And I sang my... La la teacher,
my la la teacher for you                    And I watched my little
                                             Baby from the seaside
(I'm coming on the window)
My la la teacher, my la la teacher for you
(I'm coming on the window again)

bridge: ( you play this part of the song a little softer than te rest)

--------------------------x2    ---------------------------|
--------------------------      ---------------------------|
--------------------------      ---------------------------|
--8-8-8-8-8-8--3-3-3-3-3-3      --5-5-5-5-5-5--7-7-7-7-7-7-|
--8-8-8-8-8-8--3-3-3-3-3-3      --5-5-5-5-5-5--7-7-7-7-7-7-|
--6-6-6-6-6-6--1-1-1-1-1-1      --3-3-3-3-3-3--5-5-5-5-5-5-|

Though it's been far away       Though it's been far away,
I'm gonna help you out          yes it's been far away
Though it's been far away
I'm gonna help you out

solo:
----------------------------55555555---------------------------55555555-|
------------6666666-8888888----------66666666--------666666666----------|
--777777777----------------------------------77777777-------------------|
------------------------------------------------------------------------|
------------------------------------------------------------------------|
------------------------------------------------------------------------|

--8888888-5555555-------55555555-------5555555-88888888-12-12-12-12-12-|
-----------------8888888--------8888888--------------------------------|
-----------------------------------------------------------------------|
-----------------------------------------------------------------------|
-----------------------------------------------------------------------|
-----------------------------------------------------------------------|

--13-13-13-13-13-12-12-12-12-12-10-10-10-10-10-10-6-6-6-6-6-5-5-5-5-5-5-|
------------------------------------------------------------------------|
------------------------------------------------------------------------|
------------------------------------------------------------------------|
------------------------------------------------------------------------|
------------------------------------------------------------------------|

-------------------------------------5-5-5-5-5--------8-12-10-5-8-6----|
--6-6-6-6-6-8-8-8-8-8--6-8-6h-6-8-6h----------8-6-8h10-------------8-6-|
-----------------------------7------7------------7---------------------|
-----------------------------------------------------------------------|
-----------------------------------------------------------------------|
-----------------------------------------------------------------------|

---------------5-5-5-5-5-5-5-------------------------------------------|
--8-8-8-8-8-8-8--------------------------------------------------------|
-----------------------------------------------------------------------|
-----------------------------------------------------------------------|
-----------------------------------------------------------------------|
-----------------------------------------------------------------------|

chorus:
---------------------------------------------x2 -------------------|
---------------------------------------------   -------------------|
--7-7-------7-7------------------------------   -----------7-7-7-7-|
--7-7--8-8--7-7--8-8--10-10-10-10-10-10-10-10   --7-7-7-7--7-7-7-7-|
--5-5--8-8--5-5--8-8--10-10-10-10-10-10-10-10   --7-7-7-7--5-5-5-5-|
-------6-6-------6-6---8--8--8--8--8--8--8--8   --5-5-5-5----------|
And I sang my... La la teacher,
my la la teacher for you                    And I watched my little
                                             Baby from the seaside
(I'm coming on the window)
My la la teacher, my la la teacher for you
(I'm coming on the window again)
Tap to rate this tab
 
# A B C D E F G H I J K L M N O P Q R S T U V W X Y Z