Song name
# A B C D E F G H I J K L M N O P Q R S T U V W X Y Z

Mando Diao - Burning Up tab

The solo starts after the second chorus.

e|--------------------------------------|
B|--------------------------------------|
G|--------------------------------------|
D|--------------------------------------|
A|------6-6---6-6-7-9-9-7-9-10----------|
E|--7-8-----8---------------------------|

e|--------------------------------------------------|
B|--------------------------------------------------|
G|--------------------------------------------------|
D|--777--------777----------------------------------|
A|------10-9-9-----10-9-9-7-9-10-9-10----10-9-10/14-|
E|------------------------------------7-------------|

The next part is tremolo picking, every number stands for 8 hits.

e|-------------------------------------|
B|-------------------------------------|
G|--16-16-14-11-12-12-12-12-11-11-8-8--|
D|-------------------------------------|
A|-------------------------------------|
E|-------------------------------------|

Last note is played normal.

e|--------------|
B|--------------|
G|--------------|
D|--------------|
A|--9-----------|
E|--------------|
Tap to rate this tab
 
# A B C D E F G H I J K L M N O P Q R S T U V W X Y Z