Mando Diao - Added Family tab

-------------------------------------------------------------------------------
			     Added Family Guitar Solo - Mando Diao
-------------------------------------------------------------------------------
Tabbed by: Chris Warren


Tuning:Standard E

e|------------------------9--9b--------------8-9--------9-9-11-12-12b-11-9------|
B|--\12--9-12-9-12-------------12-9----9-12--------9------------------------12--|
G|------------------------------------------------------------------------------|
D|------------------------------------------------------------------------------|
A|------------------------------------------------------------------------------|
E|------------------------------------------------------------------------------|

e|---9--9h12p9------9-----------------------------------------------------------|
B|---------------12-----12-9----------------------------------------------------|
G|-----------------------------11-11b---9-----9-11----8----8----8----8----------|
D|-----------------------------------------11-----------10---10---10---10-------|
A|------------------------------------------------------------------------------|
E|------------------------------------------------------------------------------|

e|-------------------------------|
B|-------------------------------|
G|---8h9-8-----------------------|
D|-------------11----------------|
A|-------------------11--9-------|
E|-------------------------------|



************************************

| /   slide up
| \   slide down
| h   hammer-on
| p   pull-off
| ~   vibrato
| +   harmonic
| x   Mute note
| b   Bend
| pb  Pre-bend
| br  Bend release
| pbr Pre-bend release
| brb Bend release bend

************************************
Tap to rate this tab
 
# A B C D E F G H I J K L M N O P Q R S T U V W X Y Z