Mando Diao - If I Dont Live Today chords

Highlighted       Show chord diagrams
Hey Dudes, this is my first Tab here. I hope you like it.Play the different intros 
with 2 guitars and its going to sound amazing.

                   Mando Diao - If i don't live today


Standart Tuning


There are 4 basic Chords used in this song:

E / G#m / C#m / A

Listen to the song to get the important rythm!

Intro part:

e|-------------------------------------|
b|-------------------------------------|
g|-------------------------------------|
D|-------------------------------------|
A|---------------2--4-4--2-4-2---------|
E|--0-0--2--4-4-----------------4-2----|   repeat this as often as required

or:

e|-0-0-0-0-0-0--4-4-4-4-4-4--4-4-4--4-4-4-4-x-5----|
b|-0-0-0-0-0-0--4-4-4-4-4-4--5-5-5--4-4-4-5-x-5----|
g|-1-1-1-1-1-1--4-4-4-4-4-4--6-6-6--4-4-4-6-x-6----|
D|-2-2-2-2-2-2--6-6-6-6-6-6--6-6-6--4-4-4-6-x-7----|
A|-2-2-2-2-2-2--6-6-6-6-6-6--4-4-4--4-4-4-4-x-7----|
E|-0-0-0-0-0-0--4-4-4-4-4-4--4-4-4--4-4-4-4-x-5----|   repeat...

   D D U U D U  D D U U D U  D D U  U D U D U D!



First verse:

G#m                     F#m
Take my hand of funeral flowers in white 
            G#m
Why did you hurt me so? 
                  F#m
You said that you never stood out 
           G#m
So go kiss Ann on the cheek 

She’s never weak 
                      F#m
She likes the way you betrayed me 
F#m                               
But don't forget 


Chorus:

          E      G#m    C#m          A            E  --> G#m C#m A
If I don't live today, then I might be here tomorrow 

          E      G#m    C#m          A            E  --> G#m C#m A
If I don't live today, then I might be here tomorrow 
             G#m
Be here tomorrow


Second verse:


Watch me shine, as all the lights closes down
it's just a talent of mine
You know I die whenever I want
So go chase fortune when I'm gone
I'm guilty of reading my own past 

Chorus
Tap to rate this tab
 
# A B C D E F G H I J K L M N O P Q R S T U V W X Y Z