Song name
# A B C D E F G H I J K L M N O P Q R S T U V W X Y Z

Mando Diao - Mr Moon tab

*************************
**Mando Diao - Mr. Moon**
*************************

Artist: Mando Diao
Song: Mr. Moon
Album: Bring 'Em In
Tabber: Alfred
Date: 25/04 2007


Intro:(2nd guitar continues playing this part, with variations, every verse throughout 
song)

  Bm           A            G            E            Bm
e|---------7---5--------5-----------3-----------0---|-----...
B|------7------5-----------------3------------------|-----...
G|---7---------6---------------4-------------0h1-(2)|-(4)-...
D|------------------------7\5-----------------------|-----...
A|------------------------------------5\\2----------|-----...
E|--------------------------------------------------|-----...

Solo:
   Bm                    A                       G               E
e|----------------------------------------------------------------|
B|-7----7*------------------------------9-------------------------|
G|-9b11---11b9-7-----7-7---7-7---7-9b11---11b9-7------7---7-------|
D|---------------9-9-----9-----9-----------------9------9---7-8-/9|
A|----------------------------------------------------------------|
E|----------------------------------------------------------------|

Option 1:
          Bm                 A                       G
e|------------------------------10---10---10---10-12-12/14-12-10----------------------|
B|------------------------10-12---12---12---12------------------12-12-10h12p10--------|
G|----7-9-9b11b9-7-9-9b11-----------------------------------------------------11-10-9~|
D|-/9---------------------------------------------------------------------------------|
A|------------------------------------------------------------------------------------|
E|------------------------------------------------------------------------------------|

Option 2:
          Bm                 A                       G
e|---------------------------7--10-7-10-7-10-7-10-12-12/14-12-10----------------------|
B|------------------------10------------------------------------12-12-10h12p10--------|
G|----7-9-9b11b9-7-9-9b11-----------------------------------------------------11-10-9~|
D|-/9---------------------------------------------------------------------------------|
A|------------------------------------------------------------------------------------|
E|------------------------------------------------------------------------------------|

* Here you can hear an A(10th fret on the B string). However, it's from the 2nd guitar 
you can, of course, play this note yourself
Tap to rate this tab
 
# A B C D E F G H I J K L M N O P Q R S T U V W X Y Z