Song name
# A B C D E F G H I J K L M N O P Q R S T U V W X Y Z

Mando Diao - Strovtag I Hembygden tab

-----------------------------------------------------------------------------
                             Strövtåg i Hembygden - Mando Diao
-----------------------------------------------------------------------------
Tabbed by: Ludwig Kumlin Larsson
E-mail: Ludwigkumlinlarsson@gmail.com

Tuning: Standard
Capo: 4th fret

 Intro/Outro:
         C                      F
      e|-------0-------------|--------0------------|
      B|---1-3---3-1---------|----1-3---3-1--------|
      G|---------------------|---------------------|
      D|---------------------|--3------------------|
      A|-3-------------------|---------------------|
      E|---------------------|---------------------|

  
         EM     DM              C
      e|--------1p0----------|---------0-----------|
      B|---0-3------3-0------|----1-3----3--1------|
      G|---------------------|---------------------|
      D|---------------------|---------------------|
      A|-2-------------------|--3------------------| 
      E|---------------------|---------------------| x2


Verse:
            C                    F
     Det är skimmer i molnen och glitter i sjön,
            Em        Dm           C
     det är ljus över stränder och näs,
         C                             F
     och omkring mig står den härliga skogen så grön
           Em       Dm        C
     bakom ängarnas gungande gräs.

             Am                     Em
     Och med sommar och skönhet och skogsvindsackord
              Dm                     G
     står min hembygd och hälsar mig glad,
             Am                     Em
     var mig hälsad, men var är min faders gård,
            Dm                   G
     det är tomt bakom lönnarnas rad...


The chords follow the same pattern for the rest of the song...


Tap to rate this tab
 
# A B C D E F G H I J K L M N O P Q R S T U V W X Y Z