Guitaretab - guitar tabs
Song name
# A B C D E F G H I J K L M N O P Q R S T U V W X Y Z

Mando Diao - Band tab

At the last chorus there are some more tremolo picking, but its not necessary to
make the song sound good so I skipped it for now. 

This is my first tab so please send me a comment to endelavsverige@hotmail.com


Intro:

Keyboard arranged for guitar:

E|--12---10-12-15-13---12-10---------12-15-20-19-15-----|
B|-----------------------------13-15--------------------|
G|------------------------------------------------------|
D|------------------------------------------------------|
A|------------------------------------------------------|
E|------------------------------------------------------|

E|--12--------------------------------------------------|
B|-----15-13------13------------------------------------|
G|-------------14----14-12------------------------------|
D|------------------------------------------------------|
A|------------------------------------------------------|
E|------------------------------------------------------|

Played while guitar 2 plays 

C  Em  F  G   C
C  Em  F  G   C

Verse

E|----3------------7------------5------------3----------|
B|---5------------8------------6------------3-----------|
G|--5------------9------------5------------5------------|
D|------------------------------------------------------|
A|------------------------------------------------------|
E|------------------------------------------------------|

E|----3------------7------------5------------1----------|
B|---5------------8------------6------------3-----------|
G|--5------------9------------5------------2------------|
D|------------------------------------------------------|
A|------------------------------------------------------|
E|------------------------------------------------------|

C                Em               F

I've played that song from long ago 

           G                 C
When every morning longed to fall 

 C           Em             F
It broke my sighs and my regrets 

Dm
It stumbled on the steps 

Dm                  
You've build for climbing

Guitar 1 tremolo picked

E|---------------------------------------------------|
B|-13-13-13-13-13-13-13-13-13-13-13-13-13-13-13-13---|
G|---------------------------------------------------|
D|---------------------------------------------------|
A|---------------------------------------------------|
E|---------------------------------------------------|

Guitar 2

E|---------------------10----------------------------|
B|----------10---------------------------------------|
G|-10------------------------------------------------|
D|---------------------------------------------------|
A|---------------------------------------------------|
E|---------------------------------------------------|

C
towards me 

Guitar 1 tremolo picked

E|---------------------------------------------------|
B|-12-12-12-12-12-12-12-12-10-12-10-10-10-10-10-8-8-8|
G|---------------------------------------------------|
D|---------------------------------------------------|
A|---------------------------------------------------|
E|---------------------------------------------------|

Guitar 2

E|-10------------------------------------------------|
B|-12-------12---------------------------------------|
G|-12-------------------12---------------------------|
D|---------------------------------------------------|
A|---------------------------------------------------|
E|---------------------------------------------------|

Dm                 
Now it feels like

Guitar 1 tremolo picked

E|---------------------------------------------------|
B|-13-13-13-13-13-13-13-13-13-13-13-13-13-13-13-13---|
G|---------------------------------------------------|
D|---------------------------------------------------|
A|---------------------------------------------------|
E|---------------------------------------------------|

Guitar 2

E|---------------------10----------------------------|
B|----------10---------------------------------------|
G|-10------------------------------------------------|
D|---------------------------------------------------|
A|---------------------------------------------------|
E|---------------------------------------------------|

G
sinners in the sun 

Guitar 1 tremolo picked

E|---------------------------------------------------|
B|-15-15-15-15-15-15-15-15-15-15-15-15-15-15-15-15-15|
G|---------------------------------------------------|
D|---------------------------------------------------|
A|---------------------------------------------------|
E|---------------------------------------------------|

Guitar 2

E|-----------------------------------------------------|
B|-----------------------------------------------------|
G|-----------------------------------------------------|
D|-5-5-5-5-5-5-5-5-5-5-5-5-5-5-5-5-5-5-5-5-5-5-5-5-5-5-|
A|-5-5-5-5-5-5-5-5-5-5-5-5-5-5-5-5-5-5-5-5-5-5-5-5-5-5-|
E|-3-3-3-3-3-3-3-3-3-3-3-3-3-3-3-3-3-3-3-3-3-3-3-3-3-3-|

 
  C                    Em
When I say I said I'd die for you 

F                 G
Or was it in my head 

C                 Em
I took you down on ouzo 

F                   G          C
And now I think I'd rather see you dead 

         C        Em
I said i die for you

F              G
or was it in my head

C                  Em
you took me down on ouzo
F                  G
and then you say you'd rather see me 

C     Em      F     G
Freeeeeeeeeeeeeeeeeeee

While guitar 2 plays the chords as written abow guitar 1 play:

E|-12---10h12p10---8h10p8---7h8p7--------------------|
B|---------------------------------------------------|
G|---------------------------------------------------|
D|---------------------------------------------------|
A|---------------------------------------------------|
E|---------------------------------------------------|


C     Em      F     G
Freeeeeeeeeeeeeeeeeeee

E|-12---10h12p10---8h10p8---7h8p7--------------------|
B|---------------------------------------------------|
G|---------------------------------------------------|
D|---------------------------------------------------|
A|---------------------------------------------------|
E|---------------------------------------------------|


Same as verse 1

C             Em              F
If my depression stood the wind 

           G            C
I spat the devil up his chin 
[ Tab from: http://www.guitaretab.com/m/mando-diao/53554.html ]
C           Em         F
It couldn't do me any harm 

G            Dm (maybe wrong)     
It roughed my steel and shut 

Dm              
my mouth My late 

Guitar 1 tremolo picked

E|---------------------------------------------------|
B|-13-13-13-13-13-13-13-13-13-13-13-13-13-13-13-13---|
G|---------------------------------------------------|
D|---------------------------------------------------|
A|---------------------------------------------------|
E|---------------------------------------------------|

Guitar 2

E|-10-10-10-10-10-10-10-10-10-10-10-10-10-10-10-10---|
B|-10-10-10-10-10-10-10-10-10-10-10-10-10-10-10-10---|
G|-10-10-10-10-10-10-10-10-10-10-10-10-10-10-10-10---|
D|---------------------------------------------------|
A|---------------------------------------------------|
E|---------------------------------------------------|

      C
Impression

Guitar 1 tremolo picked

E|---------------------------------------------------|
B|-12-12-12-12-12-12-12-12-10-12-10-10-10-10-10-8-8-8|
G|---------------------------------------------------|
D|---------------------------------------------------|
A|---------------------------------------------------|
E|---------------------------------------------------|

Guitar 2

E|-10-10-10-10-10-10-10-10-10-10-10-10-10-10-10-10---|
B|-12-12-12-12-12-12-12-12-12-12-12-12-12-12-12-12---|
G|-12-12-12-12-12-12-12-12-12-12-12-12-12-12-12-12---|
D|---------------------------------------------------|
A|---------------------------------------------------|
E|---------------------------------------------------|

Dm                     
Oh, that rain that's 

Guitar 1 tremolo picked

E|---------------------------------------------------|
B|-13-13-13-13-13-13-13-13-13-13-13-13-13-13-13-13---|
G|---------------------------------------------------|
D|---------------------------------------------------|
A|---------------------------------------------------|
E|---------------------------------------------------|

Guitar 2

E|-10-10-10-10-10-10-10-10-10-10-10-10-10-10-10-10---|
B|-10-10-10-10-10-10-10-10-10-10-10-10-10-10-10-10---|
G|-10-10-10-10-10-10-10-10-10-10-10-10-10-10-10-10---|
D|---------------------------------------------------|
A|---------------------------------------------------|
E|---------------------------------------------------|


G
iching on my skin 

Guitar 1 tremolo picked

E|---------------------------------------------------|
B|-15-15-15-15-15-15-15-15-15-15-15-15-15-15-15-15-15|
G|---------------------------------------------------|
D|---------------------------------------------------|
A|---------------------------------------------------|
E|---------------------------------------------------|

Guitar 2

E|-----------------------------------------------------|
B|-----------------------------------------------------|
G|-----------------------------------------------------|
D|-5-5-5-5-5-5-5-5-5-5-5-5-5-5-5-5-5-5-5-5-5-5-5-5-5-5-|
A|-5-5-5-5-5-5-5-5-5-5-5-5-5-5-5-5-5-5-5-5-5-5-5-5-5-5-|
E|-3-3-3-3-3-3-3-3-3-3-3-3-3-3-3-3-3-3-3-3-3-3-3-3-3-3-|



  C                    Em
When I say I said I'd die for you 

F                 G
Or was it in my head 

C                 Em
I took you down on ouzo 

F                   G          C
And now I think I'd rather see you dead 

         C        Em
I said i die for you

F              G
or was it in my head

C                  Em
you took me down on ouzo

F                  G
and then you say you'd rather see me 

C     Em      F     G
freeeeeeeeeeeeeeeeeeee

E|-12---10h12p10---8h10p8---7h8p7--------------------|
B|---------------------------------------------------|
G|---------------------------------------------------|
D|---------------------------------------------------|
A|---------------------------------------------------|
E|---------------------------------------------------|

C     Em      F     G
freeeeeeeeeeeeeeeeeeee

E|-12---10h12p10---8h10p8---7h8p7--------------------|
B|---------------------------------------------------|
G|---------------------------------------------------|
D|---------------------------------------------------|
A|---------------------------------------------------|
E|---------------------------------------------------|

Same as intro:

E|--12---10-12-15-13---12-10---------12-15-20-19-15-----|
B|-----------------------------13-15--------------------|
G|------------------------------------------------------|
D|------------------------------------------------------|
A|------------------------------------------------------|
E|------------------------------------------------------|

E|--12--------------------------------------------------|
B|-----15-13------12------------------------------------|
G|-------------14----14-12------------------------------|
D|------------------------------------------------------|
A|------------------------------------------------------|
E|------------------------------------------------------|

Played while guitar 2 plays 

C  Em  F  G   C
C  Em  F  G   C


Dm                  C
Hold me, scratch my shoulder 

Dm               G                                     G#   F   G 
Fold me, sue me, watch me going mad 



  C                    Em
When I say I said I'd die for you 

F                 G
Or was it in my head 

C                 Em
I took you down on ouzo 

F                   G          C
And now I think I'd rather see you dead 

         C        Em
I said i die for you

F              G
or was it in my head

C                  Em
you took me down on ouzo
F                  G
and then you say you'd rather see me 

C     Em      F     G
Freeeeeeeeeeeeeeeeeeee

E|-12---10h12p10---8h10p8---7h8p7--------------------|
B|---------------------------------------------------|
G|---------------------------------------------------|
D|---------------------------------------------------|
A|---------------------------------------------------|
E|---------------------------------------------------|

C     Em      F     G          C
Freeeeeeeeeeeeeeeeeeee

E|-12-15-20-19-15---12-------------------------------|
B|---------------------15-13------13-------13--------|
G|-----------------------------14----14-12-----------|
D|---------------------------------------------------|
A|---------------------------------------------------|
E|---------------------------------------------------|

Related for Band tab
×
Band