Song name
# A B C D E F G H I J K L M N O P Q R S T U V W X Y Z

Mando Diao - Next To Be Lowered tab

Help us improve GuitareTab! Take a short survey!
Mando diao-next to be lowered(solo)
tabbed by:braim
h:hammer
b:bend
/:slide

great song,enjoy!!

-----------------------------------------------------------------------------|
-----------------14--15--15h17--15--14----14---------------------------------|
-------11--14h16-----------------------16----16--14--12--11----11----11---11-|
-12h14------------------------------------------------------12----11----9----|
-----------------------------------------------------------------------------|
-----------------------------------------------------------------------------|

-----------------------------------------------------------------------------|
-----------------------------------------------------------------------------|
-9--11--b11--9--11--/16--14--12--11--12--11--12--11--12--12h14--11--9--11--9-|
-----------------------------------------------------------------------------|
-----------------------------------------------------------------------------|
-----------------------------------------------------------------------------|

-----------------------------------------------------------------------------|
---------------------------------------------------------------12--14--11----|
----------------9--11--12--11--12--11--12--11--12--13--14--13----------------|
-12--11--11--12--------------------------------------------------------------|
-----------------------------------------------------------------------------|
-----------------------------------------------------------------------------|

------------------|
-7----------------|
----9--7----------|
------------------| that's it,comments and questions: pizzamampff@web.de
------------------|
------------------|
Related for Next To Be Lowered tab