Song name
# A B C D E F G H I J K L M N O P Q R S T U V W X Y Z

Mando Diao - Your Lovers Nerve tab

----------------------------------------------------------------------------
			     Your lover's nerve - Mando Diao
----------------------------------------------------------------------------

Tabbed by: GuitarSpongeBob

Tuning: Standard

|Intro:
Guitar 1:

   E   C#m   G#m    Bm
e|-0-------------------------------------------|
B|-0-------------------------------------------|
G|-1----6--------------------------------------|  2x
D|-2----6-----6------9-------------------------| 
A|-2----4-----6------9-------------------------|
E|-0----------4------7-------------------------|

Guitar 2:

e|------------------------------------|-----------------------------------|
B|------------------------------------|-----------------------------------|
G|------------------------------------|-----------------------------------|
D|-14-13-11---------------11----11-13-|-14-13-11--------------------------|
A|----------11-14---11-14----14-------|------------11-14---11-11----------|
E|----------------14------------------|----------14------14------14-11-11-|


|Verse: Guitar 1
    E                  g#m
e|--0-----------------------------------------------------------|
B|--0-----------------------------------------------------------|
G|--1-----------------------------------------------------------|
D|--2-------------------6---------------------------------------|
A|--2-------------------6---------------------------------------|
E|--0-------------------4---------------------------------------|      
 Belgium or France maybe England 

    E                       c#m          f#m         B
e|--0----------------------------------------------------------------|
B|--0------------------------5---------------------------------------|
G|--1------------------------6-----------------------8---------------|
D|--2------------------------6------------4----------9---------------|
A|--2------------------------4------------4----------9---------------|
E|--0------------------------0------------2----------7---------------|
Reading your lips and they could be easily for me so fine and free 

|Verse: Guitar 2: Solo:

e|---------|---------|---------|-9--9--9-|-------|-------|---------------|
B|--9--9--9|--10-9--9|--9--9--9|9--9--9--|-12----|-12----|-14----12------|
G|-9--9--9-|-9--9--9-|-9--9--9-|---------|---11--|---11--|°---11----11--°|
D|---------|---------|---------|---------|-----13|-----13|-----13----13--|
A|---------|---------|---------|---------|-------|-------|°-------------°|
E|---------|---------|---------|---------|-------|-------|---------------|


|Chorus: Guitar 1:

    E                   A
But I’m easy for your lover’s nerve 
   E             g#m           gm   f#m      A
I’m easy and you might be hurt in a year or two weeks from now on 
 E            A               E           g#m       gm  f#m
  And when I think of it you lied you cut all my maybes twice 
  am    
   You might be far away.

|Intro: Guitar 1 + 2

|Verse

|Chorus

|Introriff: Guitar 1  +  |Solo: Guitar 2:

e|---------12-11----------------------------------------------------------|
B|---------------12----12\14/12-------------------------------------------|
G|---11-13---------13-----------13-11----11-------------------------------|
D|-14---------------------------------14----14-11--14---------------------|
A|----------------------------------------------------11-14--14\16/14-----|
E|------------------------------------------------------------------------|

e|----------------------------------------------------------------------|
B|----------------------------------------------------------------------|
G|----------------------------------------------------------------------|
D|----------------------------------------------------------------------|
A|------11-12-14-12-11-----------------------------11-12-14-12-11-------|
E|-14-14----------------12--12-14\16--12-14---14-14----------------14---|

e|-----------------------------------------------------------|
B|-----------------------------------------------------------|
G|-----------------------------------------------------------|
D|-------11-13-14-13-11--------------------------------------|
A|-14-14----------------14-----------------------------------|
E|-----------------------------------------------------------|

|Chorus: 2x

Solo: Guitar 2:
e|-------|--9-9-9|-------|-------------|-------------|---------------------|
B|--9-9-9|-9-9-9-|--9-9-9|---12--12--12|---10--10--10|----13-12-13-12-13-12|
G|-9-9-9-|-------|-9-9-9-|-13--13--13--|-11--11--11--|-14------------------|
D|-------|-------|-------|-------------|-------------|---------------------|
A|-------|-------|-------|-------------|-------------|---------------------|
E|-------|-------|-------|-------------|-------------|---------------------|
.
.
.
|End:     g#m            gm f#m   am               E
          You might be far away,  but I just don’t know…
 
| /  slide up
| \  slide down
Tap to rate this tab
# A B C D E F G H I J K L M N O P Q R S T U V W X Y Z