Song name
# A B C D E F G H I J K L M N O P Q R S T U V W X Y Z

Mando Diao - Welcome Home Luc Robitaille tab

Help us improve GuitareTab! Take a short survey!
*********************************************
**Mando Diao - Welcome Home, Luc Robitaille**
*********************************************

Artist: Mando Diao
Song: Welcome Home, Luc Robitaille
Album: Ode to Ochrasy
Tabbers: Alfred & Axel
Date: 01/10 2006

| /  slide up
| \  slide down
| h  hammer-on
| p  pull-off
| ~  vibrato
| +  harmonic
| x  Mute note

Chords:
    Bm    Em    D     G   F#/A#   F#m
e|--7-----7-----5-----3-----6-----9--|
B|--7-----8-----7-----3-----7-----10-|
G|--7-----9-----7-----4-----6-----11-|
D|--9-----9-----7-----5-----8-----11-|
A|--9-----7-----5-----5-----9-----9--|
E|--7-----------------3-----6--------|

Intro:
Guitar #2
e|---------------------------|
B|---------------------------|
G|-----4-4-4-4-4-4-4-4-4-4...|Play untill the verse begins.
D|-9\--4-4-4-4-4-4-4-4-4-4...|
A|---------------------------|
E|---------------------------|

Guitar #1                                                          Smile...
e|-7--7----------------7--7----------------7--7----------------7--7----|
B|-8--8--7---7---7---7-8--8--7---7---7---7-8--8--7---7---7---7-8--8--7-|
G|-9--9--7---7---7---7-9--9--7---7---7---7-9--9--7---7---7---7-9--9--7-|
D|-9--9--9---9---9---9-9--9--9---9---9---9-9--9--9---9---9---9-9--9--9-|
A|-------9---9---9---9-------9---9---9---9-------9---9---9---9-------9-|
E|---------------------------------------------------------------------|

*Riff #1
e|-7-7-7-7-7-7-7-7-7-7-7-7...|Play untill "...happy thoughts"
B|-7-7-7-7-7-7-7-7-7-7-7-7...|
G|---------------------------|
D|---------------------------|
A|---------------------------|
E|---------------------------|

*Riff #2
e|-----------------------------|
B|-----------------------------|
G|-4-4-4-4-4-4-4-4-4-4-4-4/9-/9|
D|-4-4-4-4-4-4-4-4-4-4-4-4-----|
A|-----------------------------|
E|-----------------------------|

Verse:
   Bm            Em   Bm
 Smile you're on TV again 
           Em       D     G
 You must put up a happy face
       D               G                  [*Riff 1]   
 Your mother told you to on christmas day
Bm            Em           Bm    
 Oh you must do what they say
              Em         D      G
 Now you're thinking of happy thoughts
       D              G              Bm  
 Like no one did you harm and it was all 1234
  F#/A#                                     Bm
 Life is so brilliant, but why? I'm not so sure.
        Em         Bm
 You remember the day
        Em         D
 You remember the package
   G      D                  G
 Where he used to spend his years

Bridge:
                    F#m
 And now you found him
     Em                    F#m
 Or was it him that found you?
     Em                      F#m        
 It feels like you already knew
  Em
 Life is sweet when he is back

 So I just say
 
Chorus:
  D       G         D          
 Welcome home, Luc Robitaille
          G                Bm
 There's so much that you missed
     G       D              G             Bm
 I'm old but I need you as much as yesterday
     A                  G   
 Oh Mister Robitaille stay
F#                    Bm [*Riff 2]x2
 I threw the others away

Em   Bm   Em
 
Verse:
   Bm              Em               Bm
 This must be the worst thing I've done
              Em           D         G
 I don't know even why I wrote this song
          D               G                   Bm  [*Riff 2, very vague]
 There's so much more to him than that paper card
               Em          Bm
 Look at him crossing the line
    Em       D         G        D               G          
 Oh it's so hard to define the moves inside my head
                 Bm                           F#/A#                  Bm
 It's all just blood blood blood sweat tears sweat sweat behind all fears
               (                WHAT?!?!?!?!                             )
         Em        Bm
 Now it seems so clear
        Em        D      G 
 Everything falls into place
       D          G                      F#m 
 This mathematic maze and now you found me

Bridge:
     Em                   F#m  
 Or was it me that found you?
     Em                      F#m
 It feels like you already knew
  Em 
 Life is sweet when he is back

 So I just say

Chorus:
  D       G         D          
 Welcome home, Luc Robitaille
          G                Bm
 There's so much that you missed
     G       D              G             Bm
 I'm old but I need you as much as yesterday
     A                  G   
 Oh Mister Robitaille stay
F#                   
 I threw the others away
                      Bm  [Riff 2]x4
 I threw the others away

Solo:
e|---------------------------------------------------------------------|
B|-------------------------------------7--7--7--7---------------7---7--|
G|-7--7--7--7-----7--9--9--9--7--9--7--------------10-10-10--9----9---9|
D|-------------9-------------------------------------------------------|
A|---------------------------------------------------------------------|
E|---------------------------------------------------------------------|

e|--------------7-7-10-9-7--------------------------------------|
B|-10-10-10-10-------------10-7-7h10-7--------------------7----7|
G|-------------------------------------9-9h11p9\7-7---7-9---9---|
D|-------------------------------------------------9------------|
A|--------------------------------------------------------------|
E|--------------------------------------------------------------|

e|-------------------------------7--------------------------|
B|-/12--12-12-10-10-10-8-8-8-7-8---8-7-8-7-------8----------|
G|-----------------------------------------9-7-9---7h9-7-9-7|
D|----------------------------------------------------------|
A|----------------------------------------------------------|
E|----------------------------------------------------------|

Verse:
   Bm            Em   Bm  
 Smile you're on TV again
           Em       D     G 
 You must put up a happy face
       D               G
 Your mother told you to
                      F#m 
 And now you see you found him
     Em                    F#m
 Or was it him that found you?
     Em                      F#m 
 It feels like you already knew
  Em
 Life is sweet when he is back

 So I just say

Chorus:
  D       G         D 
 Welcome home, Luc Robitaille
          G                Bm       
 There's so much that you missed
     G       D              G             D 
 I'm old but I need you as much as yesterday
  G                  D
 Mister Robitaille stay 
G                     Bm
 I threw the others away
 G                       Bm
 Oh I threw the others away
 G                       Bm
 Oh I threw the others away
 G                       Bm
 Oh I threw the others away
 G                       Bm
 Oh I threw the others away
G                     Bm 
 I threw the others away
G                     Bm
 I threw the others away
G                     Bm
 I threw the others away

Over and out // ALAX
Related for Welcome Home Luc Robitaille tab