Song name
# A B C D E F G H I J K L M N O P Q R S T U V W X Y Z

Mando Diao - If I Dont Live Today tab

Band:   Mando Diao
Song:   If I don't live today...
Album:  Never seen the light of day

Heres the acoustic version :)
Standard tuning

You can hear the acoustic version here

http://www.youtube.com/watch?v=JtdADDBvjC8&feature=related

Intro:
    

e|--0-----0-----o-----|
b|--0-----0-----0-----|
g|--4-----3-----2-----|
D|--6-----5-----4-----|
A|--6-----5-----4-----|
E|--0-----0-----0-----|

Second Intro:

    E    G#m   C#m    A

e|--0-----4-----4-----5--|
b|--0-----4-----5-----5--|
g|--1-----4-----6-----6--|
D|--2-----6-----6-----7--|
A|--2-----6-----4-----7--|
E|--0-----4-----4-----5--|


During the second Intro the second guitar plays this:

e|-------------------------------------|
b|-------------------------------------|
g|-------------------------------------|
D|-------------------------------------|
A|------------2--4--2--0--2------------|
E|---0--2--4-----------------4--2--0---|


Here's the verse

Verse:

   G#m   F#m

e|--4-----2---|
h|--4-----2---|
g|--4-----2---|
D|--6-----4---|
A|--6-----4---|
E|--4-----2---|

Have fun playing this amazing song!






Tap to rate this tab
# A B C D E F G H I J K L M N O P Q R S T U V W X Y Z