Song name
# A B C D E F G H I J K L M N O P Q R S T U V W X Y Z

Manga - We Could Be The Same tab

///////////////////////// We Could Be the Same //////////////////////////
//////////////////////////////// maNga //////////////////////////////////

Tabbed by Andy Denyer.
A key can be found at the botom of this tab.


 
Intro played on pizzicato strings:

     E   E   E   E  E   E   E   E     E   E   E   E  E   E   E   E   
E||--------------------------------|--------------------------------|
B||--------------------------------|--------------------------------|
G||--------------------------------|---------12-------------12------|
D||-----12--15---------12--15------|-----14-------------14----------|
A||-------------12-------------12--|-------------12-------------12--|
E||--------------------------------|--------------------------------|


  E   E   E   E  E   E   E   E     E   E   E   E  E   E   E   E   
--------------------------------|--------------------------------|
--------------------------------|--------------------------------|
--------------------------------|--------------------------------|
-----11--14---------11--14------|-----12--15---------12--15------|
-------------12-------------12--|-------------12-------------12--|
--------------------------------|--------------------------------|


  E   E   E   E  E   E   E   E     E   E   E   E  E   E   E   E   
--------------------------------|--------------------------------|
--------------------------------|--------------------------------|
---------14-------------14------|-----12--15---------12--15------|
-----15-------------15----------|--------------------------------|
-------------12-------------12--|-------------12-------------12--|
--------------------------------|--------------------------------|


  E   E   E   E  E   E   E   E                  
-------------12-------------12--|
---------14-------------14------|
-----14-------------14----------|
--------------------------------|
--------------------------------|
--------------------------------|

Guitar after 7 bars, or immediately after the pizzicato intro: 

  E  E  E  E  E  E  E  E     E  E  E  E  E  E  E  E   
--------------------------|--------------------------|
--------------------------|--------------------------|
--------------7--7--7-----|--7--7-----7--7-----7-----|
--------7--7--7--7--7-----|--7--7-----7--7-----7-----|
--5--5--5--5--5--5--5-----|--5--5-----5--5-----5-----|
--------------------------|--------------------------|


  E  E  E  E  E  E  E  E     E  E  E  E  E  E  E  E   
--------------------------|--------------------------|
--------------------------|--------------------------|
--7--7-----7--7-----7-----|--7--7-----7--7-----7-----|
--7--7-----7--7-----7-----|--7--7-----7--7-----7-----|
--5--5-----5--5-----5-----|--5--5-----5--5-----5-----|
--------------------------|--------------------------|


  E  E  E  E   E   E  E  E     E  E  E  E  E  E  E  E   
----------------------------|--------------------------|
----------------------------|--------------------------|
--7--7--9--9--10--10--9--9--|--5--5-----5--5-----5-----|
--7--7--9--9--10--10--9--9--|--5--5-----5--5-----5-----|
--5--5--7--7---8---8--7--7--|--3--3-----3--3-----3-----|
----------------------------|--------------------------|


  E  E  E  E  E  E  E  E      E   E  E   E   E  E   E  E   
--------------------------|-------------------------------|
--------------------------|-------------------------------|
--5--5-----5--5-----5-----|--12--12-----12--12-----12-----|
--5--5-----5--5-----5-----|--12--12-----12--12-----12-----|
--3--3-----3--3-----3-----|--10--10-----10--10-----10-----|
--------------------------|-------------------------------|


   Q     Q     Q    Q                   
-------------------------|
-------------------------|
--15----14----12----6----|
--15----14----12----6----|
--13----12----10----4----|
-------------------------|

Verse:
No guitar, but pizzicato part is repeated.


Bridge ("I can see it in your eyes"):
  TP           TP      TP                   TP                
  H.           Q       W                    W                 
--------------------|-------------------|--------------------|
--5------------8----|--6----------------|--10----------------|
--------------------|-------------------|--------------------|
--------------------|-------------------|--------------------|
--------------------|-------------------|--------------------|
--------------------|-------------------|--------------------|


  TP                   TP            TP                              
  W                    H.            Q        H         E  E  E  E   
-------------------|----------------------|-------------------------|
--8----------------|--14------------10----|--15--------10--8--6--5--|
-------------------|----------------------|-------------------------|
-------------------|----------------------|-------------------------|
-------------------|----------------------|-------------------------|
-------------------|----------------------|-------------------------|


Chorus:

  H        E  E  E  E     H        E  E  E  E     H        E  E  E  E   
--5--------5-----------|-----------3-----------|-----------------------|
--6--------------6-----|--5--------------5-----|--3--------3-----------|
--7-----------7--------|--5-----------5--------|--4--------------4-----|
--7-----------------7--|--5-----------------5--|--5-----------5--------|
--5--------------------|--3--------------------|--5-----------------5--|
-----------------------|-----------------------|--3--------------------|


  H        H           H        E  E  E  E     H        E  E  E  E   
--------------------|--5--------5-----------|-----------3-----------|
--------------------|--6--------------6-----|--5--------------5-----|
--3--------5--------|--7-----------7--------|--5-----------5--------|
--3--------5--------|--7-----------------7--|--5-----------------5--|
--1--------3--------|--5--------------------|--3--------------------|
--------------------|-----------------------|-----------------------|


  H        E  E  E  E      Q     Q     Q    Q      
-----------------------|-------------------------|
--3--------3-----------|-------------------------|
--4--------------4-----|--15----14----12----5----|
--5-----------5--------|--15----14----12----5----|
--5-----------------5--|--13----12----10----3----|
--3--------------------|-------------------------|


Interlude:

   E  E  E  E  E  E  E  E  
|--------------------------|
|--------------------------|
|--7--7-----7--7-----7-----|
|--7--7-----7--7-----7-----|
|--5--5-----5--5-----5-----|
|--------------------------|


  E  E  E  E  E  E  E  E     E  E  E  E  E  E  E  E   
--------------------------|--------------------------|
--------------------------|--------------------------|
--7--7-----7--7-----7-----|--7--7-----7--7-----7-----|
--7--7-----7--7-----7-----|--7--7-----7--7-----7-----|
--5--5-----5--5-----5-----|--5--5-----5--5-----5-----|
--------------------------|--------------------------|


  E  E  E  E   E   E  E  E     E  E  E  E  E  E  E  E   
----------------------------|--------------------------|
----------------------------|--------------------------|
--7--7--9--9--10--10--9--9--|--5--5-----5--5-----5-----|
--7--7--9--9--10--10--9--9--|--5--5-----5--5-----5-----|
--5--5--7--7---8---8--7--7--|--3--3-----3--3-----3-----|
----------------------------|--------------------------|


  E  E  E  E  E  E  E  E      E   E  E   E   E  E   E  E   
--------------------------|-------------------------------|
--------------------------|-------------------------------|
--5--5-----5--5-----5-----|--12--12-----12--12-----12-----|
--5--5-----5--5-----5-----|--12--12-----12--12-----12-----|
--3--3-----3--3-----3-----|--10--10-----10--10-----10-----|
--------------------------|-------------------------------|


   Q     Q     Q    Q                  
-------------------------|
-------------------------|
--15----14----12----6----|
--15----14----12----6----|
--13----12----10----4----|
-------------------------|

Verse
Bridge
Chorus

Interlude:
6 bars with nothing played on the guitar, then:

   PM PM PM PM                                        
   E  E  E  E  E  E  E  E      Q     Q     Q    Q     
|--------------------------|-------------------------|
|--------------------------|-------------------------|
|--------------7--7--7--7--|--15----14----12----6----|
|--------7--7--7--7--7--7--|--15----14----12----6----|
|--5--5--5--5--5--5--5--5--|--13----12----10----4----|
|--------------------------|-------------------------|


Chorus ending with:

    Q     Q     Q    Q     
|-------------------------|
|-------------------------|
|--15----14----12----6----|
|--15----14----12----6----|
|--13----12----10----4----|
|-------------------------| X 3


The song finishes with a repeat of the "Interlude" section, also the second half of the intro.


Duration Legend
---------------
W - whole
H - half
Q - quarter
E - 8th
S - 16th
T - 32nd
X - 64th
. - note dotted
|-n-|  - n-tuplets


Tablature Legend
----------------
L - tied note
x - dead note
g - grace note
(n) - ghost note
> - accentuded note
NH - natural harmonic
AH - artificial harmonic
TH - tapped harmonic
SH - semi harmonic
PH - pitch harmonic
h - hammer on
p - pull off
b - bend
br - bendRelease
pb - preBend
pbr - preBendRelease
brb - bendReleaseBend
\n/ - tremolo bar dip
\n - tremolo bar dive
-/n - tremolo bar Release up
/n\ - tremolo bar inverted dip
/n - tremolo bar return
-\n - tremolo bar Release down
S - shift slide
s - legato slide
/ -  slide into from below or out of upwards
\ -  slide into from above or out of downwards
~ - vibrato
W - wide vibrato
tr - trill
TP - tremolo picking
T - tapping
S - slap
P - pop
< - fade in
^ - brush up
v - brush down
Tap to rate this tab
 
# A B C D E F G H I J K L M N O P Q R S T U V W X Y Z