Song name
# A B C D E F G H I J K L M N O P Q R S T U V W X Y Z

Manhattan Transfer - Sing A Study In Brown tab

----------------------------------------------------------------------------
                 Sing A Study In Brown - Manhattan Transfer
----------------------------------------------------------------------------
Gutar solo №1
Tabbed by: Pash237

Play it with swing!
tempo - 212 bpm (this is fast)

   *   1   *   2   *   3   *   4   *   1   *   2   *   3   *   4   * 
e|---|-7---3---6---4-----------------|-------------------------------|
B|-4-|-----------------7---4---0-----|-----4---6---4-----------------|
G|---|-------------------------------|---5-------------5-------------|
D|---|-----------------------------5-|-6-------------------6---3---6-|
A|---|-------------------------------|-------------------------------|
E|---|-------------------------------|-------------------------------|

   1   *   2   *   3   *   4   *   1   *   2   *   3   *   4   *
e|-----------------6---6//-------|--------------4--7--6//--------|
B|-----4----6--7-----------------|---------4--6------------------|
G|-4-----------------------------|-----5-------------------------|
D|-------------------------------|-------------------------------|
A|-------------------------------|-------------------------------|
E|-------------------------------|-------------------------------|

   1   *   2   *   3   *   4   *     1   *   2   *   3   *   4   *
e|-------4-7---6//---------------4-|-7---6-------4------------------|
B|-4--6--------------------4--6----|---------------------7---6---4--|
G|---------------------------------|--------------------------------|
D|---------------------------------|--------------------------------|
A|---------------------------------|--------------------------------|
E|---------------------------------|--------------------------------|

   1   *   2   *   3   *   4   *   1   *   2   *   3   *   4   *
e|-------------------------------|-----------------0---3---6-------|
B|-------------------------------|-------------2-------------------|
G|/6-------------------0---------|-----0---3-----------------------|
D|-----7---8---7---676-----2---0-|-1-------------------------------|
A|-------------------------------|---------------------------------|
E|-------------------------------|---------------------------------|

fuf...

   1   *   2   *   3   *   4   *   1   *   2   *   3   *   4   *
e|-11-10-9-----------------------|-------------8---11--8/----------|
B|---------12-9------------------|---------9-----------------------|
G|--------------10---------------|-----8---------------------------|
D|-----------------11-10-9-8---9-|-10------------------------------|
A|-------------------------------|---------------------------------|
E|-------------------------------|---------------------------------|

   1   *   2   *   3   *   4   *   1   *   2   *   3   *   4   *
e|-11-10-9-----------------------|----------------------------------|
B|---------12-9------------------|---------9-------11^12---12^11-10-|
G|--------------10---------------|-----8----------------------------|
D|-----------------11-10-9-8---9-|-10-------------------------------|
A|-------------------------------|----------------------------------|
E|-------------------------------|----------------------------------|

   1   *   2   *    3   *   4   *      1   *    2   *   3   *   4   *
e|-----------------------------------|---------------------------------|
B|-11^12---12^11-10-11^12---12^11-10-|-11--11-9-8---9------------------|
G|-----------------------------------|------------------8---8----------|
D|-----------------------------------|---------------------------------|
A|-----------------------------------|---------------------------------|
E|-----------------------------------|---------------------------------|

   1   *   2   *   3   *   4   *   
e|-----3-------1-----------------|
B|-----3-------------------------|
G|-1---------------3----1--0---3-|
D|-------------------------------|
A|-------------------------------|
E|-------------------------------|

Good luck!
Tap to rate this tab
 
# A B C D E F G H I J K L M N O P Q R S T U V W X Y Z