Song name
# A B C D E F G H I J K L M N O P Q R S T U V W X Y Z

Manheim Steam Roller - Traditions Of Christmas tab

#----------------------------------PLEASE NOTE---------------------------------#
#This file is the author's own work and represents their interpretation of the #
#song. You may only use this file for private study, scholarship, or research. #
#------------------------------------------------------------------------------##

                             TRADITIONS OF CHRISTMAS
                       Chip Davis, 1988  Arr. by imdutch319

Capo 5

 3/4
|-0---1-0---|----3----|-----------|----0----|-----------|---------|
|---------1-|-3-------|-1---3-1---|-0-------|-----0-1h3-|-1-------|
|-----------|---------|---------2-|---------|-2---------|----0----|
|-----------|---------|-----------|---------|-----------|---------|
|-----------|---------|-----------|---------|-----------|---------|
|-----------|---------|-----------|---------|-----------|---------|


|----------|--------|-0---1-0---|----3----|-----------|----0----|
|-----0-1--|-3------|---------1-|-3-------|-1---3-1---|-0-------|
|-2--------|--------|-----------|---------|---------2-|---------|
|----------|--------|-----------|---------|-----------|---------|
|----------|--------|-----------|---------|-----------|---------|
|----------|--------|-----------|---------|-----------|---------|


|-----------|---------|----------|------|
|-----0-1h3-|-1-------|----1--0--|------|
|-2---------|----0----|-2--------|-5----|
|-----------|---------|----------|------|
|-----------|---------|----------|------|
|-----------|---------|----------|------|


||--0---1-0---|----3----|-----------|----0----|-----------|--------|
||o---------1-|-3-------|-1---3-1---|-0-------|-----0-1h3-|-1------|
||------------|----0----|---------2-|----0----|-2---------|----0---|
||------------|---------|-----------|---------|-----------|----2---|
||o-3---------|-2-------|-0---------|---------|-----------|--------|
||------------|---------|-----------|-3-------|-1---------|-0------|


|----------|--------|-0---1-0---|----3----|-----------|----0----|
|-----0-1--|-3------|---------1-|-3-------|-1---3-1---|-0-------|
|-2--------|-5------|-----------|----0----|---------2-|----0----|
|----------|--------|-----------|---------|-----------|---------|
|----------|--------|-3---------|-2-------|-0---------|---------|
|-1--------|-3------|-----------|---------|-----------|-3-------|


                                   1.     2.
|-----------|---------|----------|-----||---|------*|
|-----0-1h3-|-1-------|----1--0--|----o||-1-|-(1)--*|
|-2---------|----0----|-2--------|-5---||-0-|-(0)--*|
|-----------|---------|----3-----|-----||-2-|-(2)--*|
|-----------|---------|----------|-3--o||-3-|-(3)--*|
|-1---------|-0-------|-1-----3--|-----||---|------*|


Tap to rate this tab
# A B C D E F G H I J K L M N O P Q R S T U V W X Y Z