Song name
# A B C D E F G H I J K L M N O P Q R S T U V W X Y Z

Manibela - Sulyap chords

Highlighted       Show chord diagrams
Title : Sulyap
Ear Tabbed : Yuki Tomori
Guitar tuning : Standard
For Question : (facebook/Email) yukiitomori@yahoo.com


INTRO:
e --------------------|
B --------------5--5--|
G --4--5--7--7--------|
D --------------------|
A --------------------|
E --------------------|

e -------------------------------|
B -------------------------------|
G --4--5--7--7--9--7--9--7H9--7--|
D -------------------------------|
A -------------------------------|
E -------------------------------|


G                  Am
Minsan sa aking pag iisa
      Bm             C
nakita kita'ng lumuluha
G                  Am
Siguro ay nag daramdam
      Bm           C
sa sinabi ng iyong syota


Refrain:

G                  Am
Pero bakit ganito ako
        Bm                    C
tuluyang lumalapit at napapa ibig mo


Chorus:
       G                   Am
Konting ngiti mo lang bawat sulyap
      Bm             C
at ako'y napapa sunod mo
        G                  Am
Konting ngiti mo lang bawat pansin
      Bm          C
at ako'y lalapit na ah ah ah

Adlib/Solo :
(E Vibrate yung string para mas maganda pakingan)

e ---------------------------------|
B ---------------------------------|
G --10--9--10--12--10--9--10--14---|
D ---------------------------------|
A ---------------------------------|
E ---------------------------------|

e ---------------------------------|
B ---------------------12--13--15--|
G --10--9--10--12--14--------------|
D ---------------------------------|
A ---------------------------------|
E ---------------------------------|

Speed picking (alternate picking)
Repeat 4x
e --------------------------------------------------------------------|
B --12-12-12-12--13-13-13-13--15-15-15-15--13-13-13-13--12H13P12-12---|
G --------------------------------------------------------------------|
D --------------------------------------------------------------------|
A --------------------------------------------------------------------|
E --------------------------------------------------------------------|
12Vibrate (sa huling ikot nyo ito dagdag)

     Am
Sa iyong ngiti
Bm           C
mondo ko nabubuo
     G           Am
Pero ng sabihin mo
        Bm         C
wag ka nang susundan
         G                 Am
ang mundo kung pag ka ganda ganda
    Bm            C
ay bigla lang nawala

Refrain:
      G        Am
nandito parin ako
            Bm                     C
nag hihintay na mag bago ang isipan mo

Chorus: Repeat 2x
       G                   Am
Konting ngiti mo lang bawat sulyap
      Bm             C
at ako'y napapa sunod mo
        G                  Am
Konting ngiti mo lang bawat pansin
      Bm          C
at ako'y lalapit na ah ah ah

(kunting tingin bawat sulyap)
(kunting tingin bawat pansin)
Tap to rate this tab
# A B C D E F G H I J K L M N O P Q R S T U V W X Y Z