Song name
# A B C D E F G H I J K L M N O P Q R S T U V W X Y Z

Manic Hispanic - Tijuana Must Fall tab

(sounds best if you pull off after every chord)

e|----------------------------------------------------------------------------|
B|----------------------------------------------------------------------------|
G|-5-5-5-5-5-5-5-5--8-8-8-8-8-8-8-8--3-3-3-3-3-3-3-3--10-10-10-10-10-10-10-10-|
D|-5-5-5-5-5-5-5-5--8-8-8-8-8-8-8-8--3-3-3-3-3-3-3-3--10-10-10-10-10-10-10-10-|
A|-3-3-3-3-3-3-3-3--6-6-6-6-6-6-6-6--1-1-1-1-1-1-1-1---8--8--8--8--8--8--8--8-|
E|----------------------------------------------------------------------------|

This is who whole song basically goes.

Verse.
e|--9-11-12-11-9--9-11-12-11-9----|
B|-9-------------9----------------|
G|--------------------------------|
D|--------------------------------|
A|--------------------------------|
E|--------------------------------|


Outro.     (again, pull off after every chord)
e|----------------------------------------------------|
B|-------------------------------------------------5--|
G|-------------------------------------------------5--|
D|-5-5--8-8--3-3--10-10--5-5--8-8--3-3--10-10-10---5--|
A|-3-3--6-6--1-1---8--8--3-3--6-6--1-1---8--8--8---3--|
E|----------------------------------------------------|

Thats it.
Tap to rate this tab
# A B C D E F G H I J K L M N O P Q R S T U V W X Y Z