Song name
# A B C D E F G H I J K L M N O P Q R S T U V W X Y Z

Manic Street Preachers - Motorcycle Emptiness tab

Manic Street Preachers - Motorcycle Emptiness

This is James's lead part, very hard at first but once you get it there's no problem. 
the quick bit at the end of the last chorus to look out for.

             H.            S  S  S  S
E||-------|---------------------------|
B||-------|---------------------------|
G||-------|---------------------------|
D||-------|--9b------------7h-9p-7h-9-|
A||-------|---------------------------|
E||-------|---------------------------|


  H.            S  S  S  S    H.            E.   S
---------------------------|-----------------------|
---------------------------|-----------------------|
---------------------------|-----------------------|
--9b------------7h-9p-7h-9-|--9b------------9\-----|
---------------------------|-----------------------|
---------------------------|-----------------------|


  S S S S S S S S S S S S S S S S
----------------------------------|
----------------------------7-9-L-|
------------6-6-6-6-8-8-8-9-------|
--7-9-9-9-9-----------------------|
----------------------------------|
----------------------------------|


  H.            S  S  S  S    H.            S  S  S  S
---------------------------|---------------------------|
--9b------------7h-9p-7h-9-|--9b------------7h-9p-7h-9-|
---------------------------|---------------------------|
---------------------------|---------------------------|
---------------------------|---------------------------|
---------------------------|---------------------------|


  H.            E.   S
-----------------------|
--9b------------9\-----|
-----------------------|
-----------------------|
-----------------------|
-----------------------|


  S S S S S S S S S S S S S S S S    W
----------------------------------|-------------------|
----------------------------------|-------------------|
------------6-6-6-6-8-8-8-9-L-L-L-|--L----------------|
--7-9-9-9-9-----------------------|-------------------|
----------------------------------|-------------------|
----------------------------------|-------------------|


                  H.             S   S   S   S
----|----|----|--------------------------------|
----|----|----|--12b------------10h-12p-10h-12-|
----|----|----|--------------------------------|
----|----|----|--------------------------------|
----|----|----|--------------------------------|
----|----|----|--------------------------------|


   H.             S   S   S   S
--------------------------------|
--12b------------10h-12p-10h-12-|
--------------------------------|
--------------------------------|
--------------------------------|
--------------------------------|


   H.             E.   S
-------------------------|
--12b------------12\-----|
-------------------------|
-------------------------|
-------------------------|
-------------------------|


  S S S S S S S S S S S S S S S S    W
----------------------------------|-------------------|
----------------------------------|-------------------|
------------6-6-6-6-8-8-8-9-L-L-L-|--9----------------|
--7-9-9-9-9-----------------------|-------------------|
----------------------------------|-------------------|
----------------------------------|-------------------|


  W
-------------------|----|----|
-------------------|----|----|
--L----------------|----|----|
-------------------|----|----|
-------------------|----|----|
-------------------|----|----|


  H.            S  S  S  S    H.            S  S  S  S
---------------------------|---------------------------|
--9b------------7h-9p-7h-9-|--9b------------7h-9p-7h-9-|
---------------------------|---------------------------|
---------------------------|---------------------------|
---------------------------|---------------------------|
---------------------------|---------------------------|


  H.            E.  S    Q.     Q.     Q
----------------------|---------------------|
--9b------------9-----|---------------------|
----------------------|----------------6----|
----------------------|--7------9-----------|
----------------------|---------------------|
----------------------|---------------------|


  W
-------------------|-------------------|
-------------------|-------------------|
--9----------------|-------------------|
-------------------|-------------------|
-------------------|-------------------|
-------------------|-------------------|


   Q      E  Q    Q    E      Q.       H        S   S
--------------------------|---------------------------|
--10b----10--9---------9--|--10b------10--------9h-10-|
------------------9-------|---------------------------|
--------------------------|---------------------------|
--------------------------|---------------------------|
--------------------------|---------------------------|


   Q.       H        S   S     Q.       H        E
---------------------------|------------------------|
--10b------10--------9h-10-|--10b------10--------L--|
---------------------------|------------------------|
---------------------------|------------------------|
---------------------------|------------------------|
---------------------------|------------------------|


  H        Q    Q
---------------------|-------|-------|-------|-------|
--L------------------|-------|-------|-------|-------|
---------------------|-------|-------|-------|-------|
--L------------------|-------|-------|-------|-------|
---------------------|-------|-------|-------|-------|
---------------------|-------|-------|-------|-------|


-------|-------|-------|-------|
-------|-------|-------|-------|
-------|-------|-------|-------|
-------|-------|-------|-------|
-------|-------|-------|-------|
-------|-------|-------|-------|


  H.            S  S  S  S    H.            S  S  S  S
---------------------------|---------------------------|
---------------------------|---------------------------|
---------------------------|---------------------------|
--9b------------7h-9p-7h-9-|--9b------------7h-9p-7h-9-|
---------------------------|---------------------------|
---------------------------|---------------------------|


  H.            E.   S
-----------------------|
-----------------------|
-----------------------|
--9b------------9\-----|
-----------------------|
-----------------------|


  S S S S S S S S S S S S S S S S    W
----------------------------------|-------------------|
----------------------------------|-------------------|
------------6-6-6-6-8-8-8-9-L-L-L-|--L----------------|
--7-9-9-9-9-----------------------|-------------------|
----------------------------------|-------------------|
----------------------------------|-------------------|


                  H.             S   S   S   S
----|----|----|--------------------------------|
----|----|----|--12b------------10h-12p-10h-12-|
----|----|----|--------------------------------|
----|----|----|--------------------------------|
----|----|----|--------------------------------|
----|----|----|--------------------------------|


   H.             S   S   S   S
--------------------------------|
--12b------------10h-12p-10h-12-|
--------------------------------|
--------------------------------|
--------------------------------|
--------------------------------|


   H.             S   S   S   S
--------------------------------|
--12b------------10h-12p-10h-12-|
--------------------------------|
--------------------------------|
--------------------------------|
--------------------------------|


  S S S S S S S S S S S S S S S S    W
----------------------------------|-------------------|
----------------------------------|-------------------|
------------6-6-6-6-8-8-8-9-L-L-L-|--L----------------|
--7-9-9-9-9-----------------------|-------------------|
----------------------------------|-------------------|
----------------------------------|-------------------|


                 H.            S  S  S  S
----|----|----|---------------------------|
----|----|----|--9b------------7h-9p-7h-9-|
----|----|----|---------------------------|
----|----|----|---------------------------|
----|----|----|---------------------------|
----|----|----|---------------------------|


  H.            S  S  S  S    H.            E.   S
---------------------------|-----------------------|
--9b------------7h-9p-7h-9-|--9b------------9\-----|
---------------------------|-----------------------|
---------------------------|-----------------------|
---------------------------|-----------------------|
---------------------------|-----------------------|


  Q.     Q.     Q       W
---------------------|-------------------|
---------------------|-------------------|
----------------6----|--9----------------|
--7------9-----------|-------------------|
---------------------|-------------------|
---------------------|-------------------|


                       Q      E  Q    Q    E
-------------------|--------------------------|
-------------------|--10b----10--9---------9--|
-------------------|------------------9-------|
-------------------|--------------------------|
-------------------|--------------------------|
-------------------|--------------------------|


   Q.       H        S   S     Q.       H        S   S
---------------------------|---------------------------|
--10b------10--------9h-10-|--10b------10--------9h-10-|
---------------------------|---------------------------|
---------------------------|---------------------------|
---------------------------|---------------------------|
---------------------------|---------------------------|


   Q.       H        E     H        Q    Q
------------------------|---------------------|-------|
--10b------10--------L--|--L------------------|-------|
------------------------|---------------------|-------|
------------------------|--L------------------|-------|
------------------------|---------------------|-------|
------------------------|---------------------|-------|


-------|-------|-------|-------|-------|-------|-------|
-------|-------|-------|-------|-------|-------|-------|
-------|-------|-------|-------|-------|-------|-------|
-------|-------|-------|-------|-------|-------|-------|
-------|-------|-------|-------|-------|-------|-------|
-------|-------|-------|-------|-------|-------|-------|


-------|-------|-------|-------|-------|-------|-------|
-------|-------|-------|-------|-------|-------|-------|
-------|-------|-------|-------|-------|-------|-------|
-------|-------|-------|-------|-------|-------|-------|
-------|-------|-------|-------|-------|-------|-------|
-------|-------|-------|-------|-------|-------|-------|


-------|-------|-------|-------|-------|-------|-------|
-------|-------|-------|-------|-------|-------|-------|
-------|-------|-------|-------|-------|-------|-------|
-------|-------|-------|-------|-------|-------|-------|
-------|-------|-------|-------|-------|-------|-------|
-------|-------|-------|-------|-------|-------|-------|


-------|-------|-------|-------|-------|-------|-------|
-------|-------|-------|-------|-------|-------|-------|
-------|-------|-------|-------|-------|-------|-------|
-------|-------|-------|-------|-------|-------|-------|
-------|-------|-------|-------|-------|-------|-------|
-------|-------|-------|-------|-------|-------|-------|


                  ^
                  W
-------|-------|-------------------|
-------|-------|-------------------|
-------|-------|--7----------------|
-------|-------|--7----------------|
-------|-------|--5----------------|
-------|-------|-------------------|


  H        Q    Q
---------------------|-------|-------|-------|-------|
---------------------|-------|-------|-------|-------|
--L--------L---------|-------|-------|-------|-------|
--L--------L---------|-------|-------|-------|-------|
--L--------L---------|-------|-------|-------|-------|
---------------------|-------|-------|-------|-------|


-------|-------|-------|-------|
-------|-------|-------|-------|
-------|-------|-------|-------|
-------|-------|-------|-------|
-------|-------|-------|-------|
-------|-------|-------|-------|


   E    E   E   E   E   E   Q
-----------------------------------|
--12b--12--------------12--15br----|
-----------13------13--------------|
---------------14------------------|
-----------------------------------|
-----------------------------------|


  E  H        Q     S   S
--------------------------|
--L--L--------L----14h-15-|
--------------------------|
--------------------------|
--------------------------|
--------------------------|


   Q     E   E   Q       E   E
---------------------------------|
--14----12-----------------------|
------------14--14br----11--11b--|
---------------------------------|
---------------------------------|
---------------------------------|


  E   H.           E
----------------------|
-----12---------------|
--L-------------------|
----------------------|
----------------------|
----------------------|


   E    E   E   E   E   E   Q
----------------------------------|
--12b--12--------------12--15b----|
-----------13------13-------------|
---------------14-----------------|
----------------------------------|
----------------------------------|


  E   E  H        E   E
-----15--L----------------|
--L---L--L--------L--15b--|
--------------------------|
--------------------------|
--------------------------|
--------------------------|


   |--3--|       |--3--|       |--3--|       |--3--|
   S  S  S  E    S  S  S  E    S  S  S  E    S  S  S  E
--12-15-12------12-15-12------12-15-12------12-15-12----|
-----------15b-----------15b-----------15b-----------15-|
--------------------------------------------------------|
--------------------------------------------------------|
--------------------------------------------------------|
--------------------------------------------------------|


   W                    E   E  E  E  E   E  E  E
---------------------|----------------------------|
--15b----------------|--5s--4--2--4--5s--4--2--4--|
---------------------|----------------------------|
---------------------|----------------------------|
---------------------|----------------------------|
---------------------|----------------------------|


  E   E  E  E  E   E  E  E
----------------------------|
--5s--4--2--4--5s--4--2--4--|
----------------------------|
----------------------------|
----------------------------|
----------------------------|


  E   E  E  E  E   E  E  E
----------------------------|
--5s--4--2--4--5s--4--2--4--|
----------------------------|
----------------------------|
----------------------------|
----------------------------|


  E   E  E  E  E   E  E  E
----------------------------|
--5s--4--2--4--5s--4--2--4--|
----------------------------|
----------------------------|
----------------------------|
----------------------------|


  H.            S  S  S  S    H.            S  S  S  S
---------------------------|---------------------------|
--9b------------7h-9p-7h-9-|--9b------------7h-9p-7h-9-|
---------------------------|---------------------------|
---------------------------|---------------------------|
---------------------------|---------------------------|
---------------------------|---------------------------|


  H.            E.   S
-----------------------|
--9b------------9\-----|
-----------------------|
-----------------------|
-----------------------|
-----------------------|


  S S S S S S S S S S S S S S S S    W
----------------------------------|-------------------|
----------------------------------|-------------------|
------------6-6-6-6-8-8-8-9-L-L-L-|--L----------------|
--7-9-9-9-9-----------------------|-------------------|
----------------------------------|-------------------|
----------------------------------|-------------------|


-------------------|----|----|-------------------|
-------------------|----|----|-------------------|
-------------------|----|----|-------------------|
-------------------|----|----|-------------------|
-------------------|----|----|-------------------|
-------------------|----|----|-------------------|


                       Q      E  Q    Q    E
-------------------|--------------------------|
-------------------|--10b----10--9---------9--|
-------------------|------------------9-------|
-------------------|--------------------------|
-------------------|--------------------------|
-------------------|--------------------------|


   Q.       H        S   S     Q.       H        S   S
---------------------------|---------------------------|
--10b------10--------9h-10-|--10b------10--------9h-10-|
---------------------------|---------------------------|
---------------------------|---------------------------|
---------------------------|---------------------------|
---------------------------|---------------------------|


   W                    E   E    H.
--------------------|--12---L-----------------|
--12----------------|------12s--10------------|
--------------------|-------------------------|
--------------------|-------------------------|
--------------------|-------------------------|
--------------------|-------------------------|


  W                   W
-------------------|-------------------|-------|-------|
--9----------------|--L----------------|-------|-------|
-------------------|-------------------|-------|-------|
-------------------|-------------------|-------|-------|
-------------------|-------------------|-------|-------|
-------------------|-------------------|-------|-------|


-------|-------|-------|-------|
-------|-------|-------|-------|
-------|-------|-------|-------|
-------|-------|-------|-------|
-------|-------|-------|-------|
-------|-------|-------|-------|


   S   S  S  S   S  S  S   S  S  S   S  S  S   S  S  S
---------12--------12--------12--------12--------12-----|
--12h-14----12h-14----12h-14----12h-14----12h-14----12h-|
--------------------------------------------------------|
--------------------------------------------------------|
--------------------------------------------------------|
--------------------------------------------------------|


   S  S  S   S  S  S   S  S  S   S  S  S   S  S  S   S
-----12--------12--------12--------12--------12--------|
--14----12h-14----12h-14----12h-14----12h-14----12h-14-|
-------------------------------------------------------|
-------------------------------------------------------|
-------------------------------------------------------|
-------------------------------------------------------|


   E    Q      E   S  S  S  S  S  S  S  S
--------------19--------------------------|
--19b--19b--------19-17----17-19-17-19--L-|
------------------------18----------------|
------------------------------------------|
------------------------------------------|
------------------------------------------|


   Q.       E   S  S  S  S  S  S  S S
-----------19-------------------------|
--19b----------19-17----17-19-17--L-L-|
---------------------18---------------|
--------------------------------------|
--------------------------------------|
--------------------------------------|


  E   E    S S  S S  E    S S  S S  S S
----------------------------------------|
----------------------------------------|
-----11b--11-9----9-11b--11-9----9-11-L-|
---------------11-------------11--------|
----------------------------------------|
----------------------------------------|


  E   E    S S  S S  E    S S  S S  S S
----------------------------------------|-------|
----------------------------------------|-------|
-----11b--11-9----9-11b--11-9----9-11-L-|-------|
---------------11-------------11--------|-------|
----------------------------------------|-------|
----------------------------------------|-------|


-------|
-------|
-------|
-------|
-------|
-------|


   S  S  S  S  S  S  S  S  S  S  S  S  S  S  S  S
--------------------------------------------------|
--12-12-12-10-------12-10-------12-10-------12-10-|
--------------13-11-------13-11-------13-11-------|
--------------------------------------------------|
--------------------------------------------------|
--------------------------------------------------|


   S  S  S  S  S  S  S  S  S  S  E   Q
--------------------------------------------|
--------12-10-------12-10-------------------|
--13-11-------13-11-------13-11-13--13br----|
--------------------------------------------|
--------------------------------------------|
--------------------------------------------|


  S S  Q      Q.      S   S   S   S
------------------------------------|
------------------------------------|
--L-x-13b----13------11h-13p-11h-13-|
------------------------------------|
------------------------------------|
------------------------------------|


   Q      H         Q
--------------------------|
--------------------------|
--13b----13--------13\----|
--------------------------|
--------------------------|
--------------------------|


  S  S S  S S  S S  E.    E  Q
----------------------------------|
----------------------------------|
-------9----9----9-11b---11--9----|
--9-11---11---11------------------|
----------------------------------|
----------------------------------|


                           |--3--|
  S  S S  S S  S S E.   E  S  S  S E
-------9----9------9b---9--7h-9p-7----|
--9-12---12---12-9-----------------9--|
--------------------------------------|
--------------------------------------|
--------------------------------------|
--------------------------------------|


   E   Q      Q.      S   S   S   S
------------------------------------|
--14--14b----14------12h-14p-12h-14-|
------------------------------------|
------------------------------------|
------------------------------------|
------------------------------------|


   Q      H        E  E
-------------------------|
--14b----14--------L-----|
-------------------------|
-------------------------|
-------------------------|
-------------------------|


   Q      E  Q     E  S  S E
------------------------------|
------------------------------|
--11b----11--9-------------9--|
--11--------------11--9-11----|
------------------------------|
------------------------------|


   Q      E  Q     E  S  S E
------------------------------|
------------------------------|
--11b----11--9-------------9--|
--11--------------11--9-11----|
------------------------------|
------------------------------|


   Q      E  Q     E  S  S E
------------------------------|
------------------------------|
--11b----11--9-------------9--|
--11--------------11--9-11----|
------------------------------|
------------------------------|


   Q      E  Q     E  S  S E
------------------------------|
------------------------------|
--11b----11--9-------------9--|
--11--------------11--9-11----|
------------------------------|
------------------------------|


   Q        H         S   S   S   S
--12-----xg12-----------------------|
--12b------12--------10h-12p-10h-12-|
------------------------------------|
------------------------------------|
------------------------------------|
------------------------------------|


   Q        H         S   S   S   S
--12-----xg12-----------------------|
--12b------12--------10h-12p-10h-12-|
------------------------------------|
------------------------------------|
------------------------------------|
------------------------------------|


   Q        H         S   S   S   S
--12-----xg12-----------------------|
--12b------12--------10h-12p-10h-12-|
------------------------------------|
------------------------------------|
------------------------------------|
------------------------------------|


  S S S S S S S S S S S S S S S S    W
----------------------------------|-------------------|
------------------------------7-L-|--5----------------|
------------6-6-6-6-8-8-8-8-9-----|-------------------|
--7-9-9-9-9-----------------------|-------------------|
----------------------------------|-------------------|
----------------------------------|-------------------|


  W                   W
-------------------|-------------------|
--L----------------|--L----------------|
-------------------|-------------------|
-------------------|-------------------|
-------------------|-------------------|
-------------------|-------------------|


  W
-------------------|-------------------||
--L----------------|-------------------||
-------------------|-------------------||
-------------------|-------------------||
-------------------|-------------------||
-------------------|-------------------||


Duration Legend
---------------
W - whole
H - half
Q - quarter
E - 8th
S - 16th
T - 32nd
X - 64th
. - note dotted
|-n-|  - n-tuplets


Tablature Legend
----------------
L - tied note
x - dead note
g - grace note
(n) - ghost note
> - accentuded note
NH - natural harmonic
AH - artificial harmonic
TH - tapped harmonic
SH - semi harmonic
PH - pitch harmonic
h - hammer on
p - pull off
b - bend
br - bendRelease
pb - preBend
pbr - preBendRelease
brb - bendReleaseBend
\n/ - tremolo bar dip
\n - tremolo bar dive
-/n - tremolo bar Release up
/n\ - tremolo bar inverted dip
/n - tremolo bar return
-\n - tremolo bar Release down
S - shift slide
s - legato slide
/ -  slide into from below or out of upwards
\ -  slide into from above or out of downwards
~ - vibrato
W - wide vibrato
tr - trill
TP - tremolo picking
T - tapping
S - slap
P - pop
< - fade in
^ - brush up
v - brush down
Tap to rate this tab
# A B C D E F G H I J K L M N O P Q R S T U V W X Y Z