Song name
# A B C D E F G H I J K L M N O P Q R S T U V W X Y Z

Manic Street Preachers - Jackie Collins Existential Question Time tab

INTRO

RIFF 1
e:----------------------------|
B:----13-12----13-12----13-12-|
G:-12-------12-------12-------|
D:----------------------------|
A:----------------------------|
E:----------------------------|  x2


RIFF 2
   G5              B5    E5   A5
e:------------------------------|
B:------------------------------|
G:------7-----------------------|
D:-9-10--10--9-10--9---9-2--2-7-|
A:-----------------9---9-2--2-7-|
E:-----------------7---7-0--0-5-|


VERSE

G5         B5     E5               A5
Tonight we beg, tonight we beg the question
     G5      B5     E5                   A5
If a married man, a married man fucks a Catholic,

RIFF 3
e:----------------------------------|
B:---------10---7----10--7---5--3---|
G:---------11---8----11--8---6--4---|
D:---------12---9----12--9---7--5---|
A:---------12---9----12--9---7--5---|
E:----------------------------------|
   And his wife dies without knowing (repeat riff 3)

RIFF 4
e:---------------------------|
B:------12--13--12--13--7--5-|
G:------12--12--12--12--7--5-|
D:------14--14--14--14--9--7-|
A:---------------------------|
E:---------------------------|
Does it make him faithful  (repeat riff 4)


CHORUS

RIFF 1 x 2

Oh mummy, what's a sex pistol?

RIFF 5
e:----12-10----12-10----12-10-|
B:----------------------------|
G:-12-------12-------12-------|
D:----------------------------|
A:----------------------------|
E:----------------------------|

   Oh mummy, what's a sex pistol?

Repeat riff 1


Repeat verse

Middle part:

  C5          Eb5        G5 (play riff 6 over this)
A situation...

RIFF 6
e:--------------------|
B:--------------------|
G:---5-4----5-4---5-4-|
D:-5------5-----5-----|
A:--------------------|
E:--------------------|

Play chorus riff then end on G5.
Tap to rate this tab
# A B C D E F G H I J K L M N O P Q R S T U V W X Y Z