Song name
# A B C D E F G H I J K L M N O P Q R S T U V W X Y Z

Manic Street Preachers - She Bathed Herself In A Bath Of Bleach tab

Manic Street Preachers - She Bathed Herself in a Bath of Bleach
Journal for Plague Lovers (2009)
tabbed by brother_jumanji


Intro/Verse:

E |-2-2-2-3-2----------------------------|
B |-3-3-3-3-3-2-2-2-3-2------------------|
G |-2-2-2-2-2-2-2-2-2-2------------------|
D |-0-0-0-0-0-2-2-2-2-2--4-4-4-4-4-4-4-4-|
A |-----------0-0-0-0-0--4-4-4-4-4-4-4-4-|
E |----------------------2-2-0-2-2-2-2-2-|
                         ^this part is actually just a barre F#m chord, but this 
sounds better when playing 
with just a guitar

Chorus:
E5     B5       D5       A5 
Empty arms and an aching heart...



Solo: 

[Main riff]
E |------------------------------------------------------------------------|
B |-x-x-x-10-----10-----10----10---10----10-----10----10-------------------|
G |-x-x-x-12b14--12b14--12b14-12b1412b14-12b14--12b14-12b14r13~~-b13-b13~~~|
D |------------------------------------------------------------------------|
A |------------------------------------------------------------------------|
E |------------------------------------------------------------------------|

[Main Riff]
E |--------------------------------------------------|
B |-x-x-x-5----5----5---5---5----5----5--------------|
G |-x-x-x-7b9--7b9--7b9-7b9-7b9--7b9--7b9---4b6------|
D |--------------------------------------------------|
A |--------------------------------------------------|
E |--------------------------------------------------|
     E5         B5  
E |--------------------------------------------------|
B |--------------------------------------------------|
G |--------------------------------------------------|
D |--7b9r7-------------------------------------------|
A |--------7b9r7-------------------------------------|
E |--------------7b9r7-2b4r4-------------------------|
    F#5
E |------------------------------------|
B |------------(9)---9-7---------------|
G |----(7)------9--6(9)--9-6-(9)-------|
D |-----7-7-9-7---------------9--7-----|  
A |-7/9--------------------------------| 
E |------------------------------------|
bracketed notes are just the ones JDB uses for that grimey feel
 but the solo can be played without em

   E5             B5                    F#5
E |----------9---------------9----------------9-------9----14-----|
B |----9-----9-12-9-----9------12-9-----9-------12-9--9-----------|
G |-11-11b13------11b13-11b13-----11b13-11b13---------11b13-------|
D |---------------------------------------------------------------|
A |---------------------------------------------------------------|
E |---------------------------------------------------------------|
  ^this part has a deceptively tricky rhythm, listen to the song. 
    *note for beginners: bar the E and B strings 
with your index, bend the G with your ring and middle, and get the 12 on B with your pinky.



E |----------------------------|
B |-10----------7----7---------|
G |-12b14r13p11-9b11-9-6-(6)---|
D |-----------------------9----|
A |-------------------------9--|
E |----------------------------|
   ^ this last bit is the only part i'm not sure about, but it sounds about right.
     enjoy

chorus chords:
E5 B5 D5 A5
-  -  -  -
-  -  -  -
9  -  7  -
9  9  7  7
7  9  5  7
-  7  -  5
Tap to rate this tab
# A B C D E F G H I J K L M N O P Q R S T U V W X Y Z