Song name
# A B C D E F G H I J K L M N O P Q R S T U V W X Y Z

Manic Street Preachers - Facing Page Top Left tab

Intro & Verse:

e|-----------------------------------------------------------------------------------------|
B|----8---------3-----3-----7-----7---7----------------------------------------------------|
G|------0---------0-----------0--------------------3--------3-------7-----7-7h8p7------7---|
D|--------8\--------3-----------7-------0------------3--------4-------8-----------8------8-|
A|-6----------1----------/5---------5-----3-1-0--------5--------4-------8-----------8------|
E|----------------------------------------------3--------2--------6------------------------|

Chorus: Eb  Bb  Eb  Gm  Eb  Bb  D

Ending:
e|----0---0----0----0--0----0---------0--------0-|
B|------6--------6------------8---------8--------|
G|------------------------------11--------11-----| x2
D|-0--------0--------0---0---------0---------0---|
A|-----------------------------------------------|
E|-----------------------------------------------|

e|----0----------0---------0----0---------0--------0----0---0----0---0---0--2-|
B|------11---------11-------------8---------8-------------6--------6--------3-|
G|---------14---------14-----7------11--------11----------------------------2-|
D|-0----------0----------0-------------0---------0---0--------0--------0----0-|
A|----------------------------------------------------------------------------|
E|----------------------------------------------------------------------------|
Tap to rate this tab
# A B C D E F G H I J K L M N O P Q R S T U V W X Y Z