Song name
# A B C D E F G H I J K L M N O P Q R S T U V W X Y Z

Manic Street Preachers - This Is Yesterday tab

Song:      This Is Yesterday
Artist:    Manic Street Preachers
Album:     The Holy Bible
Tabbed by: Mark Wood

Solo

e|----------------------------------------------------|
B|-10/12---12/10---10/8----8/7-----7/5--5/3--3/1--1h0-|
G|-------0-------0-------0-------0--------------------|
D|----------------------------------------------------|
A|----------------------------------------------------|
E|----------------------------------------------------|

e|----------------------------------------------|
B|----------------------------------------------|
G|-2/4-2h0-2h0-2b4b2-0------------0-------------|
D|----------------------------------10----------|
A|------------------------------10--------------|
E|----------------------------------------------|

e|----------------------------------------------|
B|----------------------------------------------|
G|-11h12-11/9-11---12h14p12-11p12h11\9-7/9-9~~~-|
D|----------------------------------------------|
A|----------------------------------------------|
E|----------------------------------------------|

e|------------------10/12--/15--12~~~~~-15\-----|
B|------------10/12-----------------------------|
G|-11h9-11h12-----------------------------------|
D|----------------------------------------------|
A|----------------------------------------------|
E|----------------------------------------------|
Tap to rate this tab
 
# A B C D E F G H I J K L M N O P Q R S T U V W X Y Z