Song name
# A B C D E F G H I J K L M N O P Q R S T U V W X Y Z

Manic Street Preachers - Your Love Alone Is Not Enough tab

Manic Street Preachers - Your love alone is not enough
Error or problems : heart_shapd@hotmail.com

Verse 1 :

D     A     E
Your love alone         A--------0--|
                        E--0--3-----|
          D          A          Em
is not enough not enough not enough   E--------3--0--|
                                      B--2--0--------|
D      A         E
When times get tough A--------0--|
                     E--0--3-----|
           D              A             Em
they get tough they get tough they get tough  E--------3--0--|
                                              B--2--0--------|
G                Gmaj           D             A            Em
Trade all your heroes ,in for ghosts in for ghosts in for ghosts

E--------3--0--|
B--2--0--------|

 G                 Gaj                  D             A             Em
They're always the one's that love you most love you most love you most

E--------3--0--|
B--2--0--------|

*Guitar solo chords*

D     A    Em

*The same as the first verse*

Your love alone - is not enough not enough not enough
It's what you felt it's what you said what you said what you said

You said the sky would fall on you fall on you fall on you
Through all the pain your eyes stayed Blue they stayed Blue Baby Blue

*Guitar solo chords*

D    A    Em

verse 2 :

*solo guitar 1*


E|----------------------------------------|
B|-----10---8---7---8---7-----------------|
G|-----------------------------9---7------|
D|----------------------------------------|
A|----------------------------------------|
E|----------------------------------------|

*solo guitar 2*


E|----------------------------------------|
B|----------------------------------------|
G|----11---9---7---9---7------------------|
D|-------------------------11---9---------|
A|----------------------------------------|
E|----------------------------------------|
A              A                    Em
But your love alone won't save the world  A--------------|
G              G              D           E--0--2--3--5--|
You knew the secret of the universe

*solo guitar 1 and guitar 2*
A             A             Em
Despite it all you made it worse  A--------------|
                                  E--0--2--3--5--|
G                  G
It left you lonely it left you cursed.

*The same as the first verse*

You stole the sun straight from my heart from my heart from heart
With no excuses just fell apart fell apart fell apart

No you won't make a mess of me mess of me mess of me
For you're as blind as a man can be man can be man can be

*guitar solo chords*

D      A       Em

*Guitar solo guitar 1 and 2*

*the same as verse 2*


I could have seen for miles and miles
I could have made you feel alive
I could have placed us in exile
I could have shown you how too cry

D     A     Em
Your love alone
D   A    Em
Is not enough
D      A   Em
Your love alone
D   A    Em
Is not enough

*solo guitar 1 and 2*

*solo*

E|----------------------------------------------------------------------|
B|------------------------------------------------------------------10--|
G|------------------------------------------------------------7---------|
D|--11--11--11--11--9--7--9--9--9--9--9--9--7--5--9--9--9--9-----9------|
A|----------------------------------------------------------------------|
E|----------------------------------------------------------------------|

A                     Em
La la la la, la la la la  A--------0--|
                          E--0--3-----|
G
I could've shown you

Shown you how to cry
D      A    Em
Your love alone
D   A    Em
Is not enough
D      A   Em
Your love alone

D   A   Em


I hope you enjoy this tab :).
Tap to rate this tab
# A B C D E F G H I J K L M N O P Q R S T U V W X Y Z