Manic Street Preachers - Its Not War Just The End Of Love tab

Song: (It's Not War) Just The End Of Love
Album: Postcards From A Young Man
Band: Manic Street Preachers
Email: Zhoom@live.co.uk

***RELATIVE TO CAPO 3RD FRET***

Intro

-------------------------------------2-----|
-------------------------------------3-----|
-----2-----2--0-------------0-----0--2-----|
---4-----4----2-----------2-----2----0-----|
-5-----3------3---------3-----2------------|
-------------------------------------------|

Chorus - Listen to song for timing and any repeated chords

 D      G      A Asus2 A Asus2 A     A  Asus2  A   ?  G
-2------3------0---0---0---0---0-----0----0----0---0--3-|
-3------0------2---0---2---0---2-----2----0----2---3--0-|
-2------0------2---2---2---2---2-----2----2----2---2--0-|
-0------0------2---2---2---2---2-----2----2----2---2--0-|
--------2------0---0---0---0---0-----0----0----0---0--2-|
--------3---------------------------------------------3-|

 Bm     G      A Asus2 A Asus2 A     A  Asus2  A   ?  G
-2------3------0---0---0---0---0-----0----0----0---0--3-|
-3------0------2---0---2---0---2-----2----0----2---3--0-|
-4------0------2---2---2---2---2-----2----2----2---2--0-|
-4------0------2---2---2---2---2-----2----2----2---2--0-|
-2------2------0---0---0---0---0-----0----0----0---0--2-|
--------3---------------------------------------------3-|

Verse

-------------------------------------------------------------|
-------------------------------------------------------------|
---0-----0---------0-----0--------0-----0--------0-----------|
-----4-----4---------4-----4--------4-----4--------4-------0-|
-5-----5-----5---------5-----0--------0-----0----------0-2---|
---------------3---------------5--------------5------5-------|

Bridge (Chorus to verse)
Part 1
 F#       Em
-2-2--2---0-|
-2-2--2---0-|
-3-3--3---0-|
-4-4--4---2-|
-4-4--4---2-|
-2-2--2---0-|

Part 2
 F#       G
-2-2--2---3-|
-2-2--2---0-|
-3-3--3---0-|
-4-4--4---0-|
-4-4--4---2-|
-2-2--2---3-|

Solo - ***NOT RELATIVE TO CAPO***
This song has a very well crafted solo.
I have tabbed it quite well, I feel, but I know for certain there are more twiddles 
bends. Hopefully my version will help you figure out the little details I've missed.

Part 1
-------------------------------------------------------------|
-------------------------------------------------------------|
------------------10-12-12b(14)-12b(14)-12-10h-12------------|
-------------10-12----------------------------------10-10-10-|
-------10-12-------------------------------------------------|
-10-13-------------------------------------------------------|

Part 2 - can be slides, hammer ons, bends, to get the right sound. Play what you think sounds best
----------------------------------|
----------------------------------|
-12b(14)--(12)--10--12--9h10p9----|
-------------------------------10-|
----------------------------------|
----------------------------------|

Part 3
-------------------------------------------------|
-------------------------------------------------|
-------------------------------------------------|
-14b(15)--12h14p12--10h12p10----10------10----10-|
-----------------------------10------10----10----|
-------------------------------------------------|

Part 4
-----------------------------------|
-----------------------------------|
-----------------------------------|
-14-12h14p12h14-14--17--15--14--12-|
-----------------------------------|
-----------------------------------|

Order:
Intro       x2
Chorus      x1
Verse       x3
Chorus      x1
Bridge pt 2 x1
Verse       x3
Chorus      x2
Bridge pt 1 x1
Bridge pt 2 x1
Intro       x2
Solo
Chorus      x2
Bridge pt 1 x1
Bridge pt 2 x1
Verse       x2 (End on a D chord)

This is my first tab and I'm damn proud :)
Listen to the song and you'll find your way with what I've tabbed.
If you have any problems or corrections then please Email me.
Enjoy ;)
Tap to rate this tab
 
# A B C D E F G H I J K L M N O P Q R S T U V W X Y Z