Song name
# A B C D E F G H I J K L M N O P Q R S T U V W X Y Z

Manic Street Preachers - Yes tab

-------------------------------------------------------------------------------
			     Yes - Manic Street Preachers
-------------------------------------------------------------------------------
Tabbed by: Kill0Switch


Tuning: Standard

READ: READ ALL OF THE NOTES I HAVE WRITTEN WITH THE TAB OTHERWISE IT MAY
 GET CONFUSING :)


Verse/Intro Riff

e|---------------------------------------------------------------------------|
B|---------------------------------------------------------------------------|
G|---------------------------------------------------------------------------|
D|-------7-6-------4-6-4-6-----7-6-------4-6-4-6-4---------------------------|
A|------------6-4-------------------6-4------------7-------------------------|
E|--0-0--------------------0-0-----------------------------------------------|


Pre-Chorus/Bridge Part 1

Strum A chord for 2 bars. Play these octaves to "you are a girl so 
tear of his c**k." Then strum C# and G# for 2 bars each. 

e|---------------------------------------------------------------------------|
B|---------------------------------------------------------------------------|
G|-2------------------------13-13-14-11-9--11-13----6------------------------|
D|-2------------------------------------------------6---6--------------------|
A|-0------------------------11-11-12-9--7--9--11----4---6--------------------|
E|------------------------------------------------------4--------------------|

Pre Chorus/Bridge part 2- This starts after the "Tie his hair 
in bunches, f**k him call him Rita if you want" 

e|---------------------------------------------------------------------------|
B|---------------------------------------------------------------------------|
G|---------------------------------------------------------------------------|
D|-4-4-4-4------2------------------------------------------------------------|
A|-2-2-2-2----4---4-2--------------------------------------------------------|
E|---------------------------------------------------------------------------|

Chorus

Strum these chords and hold them for a bar each.

E, F#m, G#m, A, B, C#m (Basically all the chords in the E 
major scale apart from D# in order because the D#'s place is in 
the riff after.)

Post chorus.

Slide between these two octave chords quickly.

e|---------------------------------------------------------------------------|
B|---------------------------------------------------------------------------|
G|---------------------------------------------------------------------------|
D|--13-14-13-14-13-14-13-14-13-----------------------------------------------|
A|---------------------------------------------------------------------------|
E|--11-12-11-12-11-12-11-12-11-----------------------------------------------|

Outro: Fast like the octave riff above. Repeat many times.

e|---------------------------------------------------------------------------|
B|---------------------------------------------------------------------------|
G|-15-16-15-13---------------------------------------------------------------|
D|---------------------------------------------------------------------------|
A|-13-14-13-11---------------------------------------------------------------|
E|---------------------------------------------------------------------------|



This tab is right as long as you can understand it! Happy playing.
Tap to rate this tab
 
# A B C D E F G H I J K L M N O P Q R S T U V W X Y Z