Song name
# A B C D E F G H I J K L M N O P Q R S T U V W X Y Z

Manic Street Preachers - Motorcycle Emptiness tab

I'm pretty sure this is correct
Tuning:Standard
Over Drive Guitar
b- Bend
~- Vibrato
/\-Slide
h p-Hammer on Pull off

Manic Street Preachers
Motorcycle Emptiness

Intro:

e|-----------------------------|
b|-----------------------------|
g|-4b-2h4-2h4-4b-2h4-2h4-4b-4\-|
d|-----------------------------|
a|-----------------------------|
e|-----------------------------|

Then:

e|------------------|
b|------------------|
g|-2444466668888911-
d|------------------|
a|------------------|
e|------------------|

Then:

e|-----------------------------------------|
b|-----------------------------------------|
g|-13b-11h13-11h13-13b-11h13-11h13-13b-13\-|
d|-----------------------------------------|
a|-----------------------------------------|
e|-----------------------------------------|

Then:

e|--------------------|
b|--------------------|
g|-24444666688889999~-
d|--------------------|
a|--------------------|
e|--------------------|

Singing Starts:
Then:

e|-----------------------------------------|
b|-12b-10h12-10h12-12b-10h12-10h12-12b-12\-|
g|-----------------------------------------|
d|-----------------------------------------|
a|-----------------------------------------|
e|-----------------------------------------|

Then:

e|--------------------|
b|--------------------|
g|-24444666688889999~-
d|--------------------|
a|--------------------|
e|--------------------|

Then:

e|-----------------------------------------|
b|-----------------------------------------|
g|-13b-11h13-11h13-13b-11h13-11h13-13b-13\-|
d|-----------------------------------------|
a|-----------------------------------------|
e|-----------------------------------------|

Then:

e|-----------|
b|-----------|
g|-2-44-6-9~-|
d|-----------|
a|-----------|
e|-----------|

Then: Pre-Chorus

e|--------------------------------------------|
b|-12-10-9---9-12-10~-9h10-12-10~-9h10-12-10~-|
g|---------9----------------------------------|
d|--------------------------------------------|
a|--------------------------------------------|
e|--------------------------------------------|

Chorus:
Repeat this 4 times during the chorus.
e|------|
b|------|
g|------|
d|------|
a|------|
e|-12\0-

Then:

e|-----------------------------|
b|-----------------------------|
g|-4b-2h4-2h4-4b-2h4-2h4-4b-4\-|
d|-----------------------------|
a|-----------------------------|
e|-----------------------------|

Then:

e|--------------------|
b|--------------------|
g|-24444666688889999~-
d|--------------------|
a|--------------------|
e|--------------------|

Then:

e|-----------------------------------------|
b|-12b-10h12-10h12-12b-10h12-10h12-12b-12\-|
g|-----------------------------------------|
d|-----------------------------------------|
a|-----------------------------------------|
e|-----------------------------------------|

Then:

e|--------------------|
b|--------------------|
g|-24444666688889999~-
d|--------------------|
a|--------------------|
e|--------------------|

Then:

e|-----------------------------------------|
b|-----------------------------------------|
g|-13b-11h13-11h13-13b-11h13-11h13-13b-13\-|
d|-----------------------------------------|
a|-----------------------------------------|
e|-----------------------------------------|

Then:

e|-----------|
b|-----------|
g|-2-44-6-9~-|
d|-----------|
a|-----------|
e|-----------|

The Pre-Chorus is repeated and the Chorus is repeated exactly the same.

Once the Chorus is done
Then:

e|-------------------------------------------------------------------|
b|--2--2--2--4--4--4--2--2--2--4--4--4--5--5--5--7--7--7--5--5--5--3-|
g|---2--2-----4--4-----2--2-----4--4-----5--5-----7--7-----5--5----2-|
d|-2--2--2--4--4--4--2--2--2--4--4--4--5--5--5--7--7--7--5--5--5---0-|
a|-------------------------------------------------------------------|
e|-------------------------------------------------------------------|

Then Chorus again:

Solo:

e|-----------------------------------------|
b|-12b-9-9-12-15b-14b-12p10-10b-------12\x-|
g|------9-----------------------11-11b-----|
d|-----------------------------------------|
a|-----------------------------------------|
e|-----------------------------------------|

e|--------------------15b------12h15p12---12h15p12---12h15p15---12h15p12----|
b|-12-10-9---9-12-15b----15-15b--------15---------15---------15---------15b-|
g|---------9----------------------------------------------------------------|
d|--------------------------------------------------------------------------|
a|--------------------------------------------------------------------------|
e|--------------------------------------------------------------------------|
Tap to rate this tab
# A B C D E F G H I J K L M N O P Q R S T U V W X Y Z