Song name
# A B C D E F G H I J K L M N O P Q R S T U V W X Y Z

Manic Street Preachers - Winter Lovers tab

Manic Street Preachers - Winter Lovers

Tab by Avi Yaacov
November 7, 2013


This is a truly great song by the manics, with a kick ass solo (tab included)... ENJOY!!




Intro - same as Chorus chords


Verse Chords:
G / D / C / G


Chorus Chords:
Em / A / C / G


Chorus:
         Em          A           C              G
e|-------0---|-------5---|-------8----|---------3---|
B|-------0---|-------5---|-------8----|---------3---|
G|-------0---|-------6---|-------9----|---------4---|
D|-------2---|-------7---|-------10---|---------5---|
A|-------2---|--2-5--7---|--7-9--10---|--10-9---5---|
E|--3-2--0---|--0-3--5---|--5-7--8----|--8--7---3---|



Solo at 2:08
e|-----------------------------------------------------|
B|-----------------------------------------------------|
G|--14/16-16vv--------------------14b15r14v-/16-14vv---|
D|-------------17vv--14-12vvv--------------------------|
A|-----------------------------------------------------|
E|-----------------------------------------------------|


e|------------------------------------------------|
B|------------------------------------------------|
G|------------------------------------------------|
D|--14h16h17--14---------------16b17r16-/17-16vv--|
A|---------------15----15vv-----------------------|
E|------------------17----------------------------|


e|--19vvvvvv--19vvvv---19vvvv---19b20r19p17-------17----------|
B|-----------------------------------------20--------17-20vv--|
G|------------------------------------------------------------|
D|------------------------------------------------------------|
A|------------------------------------------------------------|
E|------------------------------------------------------------|


e|------------------------------------------------------------|
B|--20--20--20p19--17/15--17p15--------------12---------------|
G|------------------------------16p14--14b15----14p12-----12--|
D|----------------------------------------------------14------|
A|------------------------------------------------------------|
E|------------------------------------------------------------|



Break at 3:29

  “winter lovers”    “
e|----------------|----------0---|
B|--17------------|----------2---|
G|--17------------|---5--4---2---|   X 3
D|--17------------|---5--4---2---|
A|--15------------|---3--2---0---|
E|----------------|--------------|


Then triple strike an open C chord, and then the finale:


    G         D         C        G

e|--3--3-5----2--2-3----0--0-2---3----|
B|--3---------3---------1--------0----|
G|--0---------2---------0--------0----|
D|--0---------0---------2--------0----|
A|--2-------------------3--------2----|
E|--3----------------------------3----|
Tap to rate this tab
# A B C D E F G H I J K L M N O P Q R S T U V W X Y Z