Song name
# A B C D E F G H I J K L M N O P Q R S T U V W X Y Z

Manic Street Preachers - Slash N Burn tab

I've seen loads of tab for this intro and none of it was right so i figured
out what i'm pretty sure is the right tab for it


Intro:

e---------------------------------|
b---------------------------------|
g------------11-13-11-10-10-11-10-|
d------9-h11-11-11-11-11-11-11-11-|
a-9-h11---------------------------|
E---------------------------------|


e-----------------------------|
b-------------7---------------|
g-8-p6--------6---------------|
d------8-p6------9-8-8-9-8----|
a-----------9----9-9-9-9-9----|
E-----------------------------|


Tabbed by :<:<:<::>:>:>:
Tap to rate this tab
 
# A B C D E F G H I J K L M N O P Q R S T U V W X Y Z