Song name
# A B C D E F G H I J K L M N O P Q R S T U V W X Y Z

Manic Street Preachers - Motown Junk tab

Artist:manic street preachers
Title:motown junk

------------------------------------------------------------------------------|
------------------------------------------------------------------------------|
------------------------------------------------------------------------------|
------------------------------------------------------------------------------|
--5-------2-2-2-2-------------------------------------------------------------|
-----3-3----------------------------------------------------------------------|
 Intro.             Repeat.

------------------------------------------------------------------------------|
------------------------------------------------------------------------------|
------------------------------------------------------------------------------|
------------------------------------------------------------------------------|
-5-5-5-5------5-9-7-5-5-5-------10-10-10-10-----------------------------------|
------------------------------------------------------------------------------|
 Verse   etc.             etc.              etc.

------------------------------------------------------------------------------|
------------------------------------------------------------------------------|
------------------------------------------------------------------------------|
------------------------------------------------------------------------------|
-5-5-5-5---------2-2-2--00-00-----------------------------0-2-5-2-0-----------|
---------0-3-3-3----------------------33333333-5555555------------------------|
 Pre Chorus                   repeat

------------------------------------------------------------------------------|
------------------------------------------------------------------------------|
------------------------------------------------------------------------------|
------------------------------------------------------------------------------|
--5-5-5-0-2-5-5-0-2-5-2-0-----------------5-5-5-5-----------------------------|
------------------------------------------------------------------------------|
 Chorus                    repeat. then           etc.

------------------------------------------------------------------------------|
------------------------------------------------------------------------------|
------------------------------------------------------------------------------|
------------------------------------------------------------------------------|
-0-2-5-2-0----5-5-5-5------10-10-10-10-10-7-10-10------10-12-9-7--------------|
------------------------------------------------------------------------------|
 solo.                etc                          etc           then verse.

------------------------------------------------------------------------------|
------------------------------------------------------------------------------|
------------------------------------------------------------------------------|
------------------------------------------------------------------------------|
---------------------------------0--0--0--0--0-----------------5-5-5----------|
------------------------------------------------------------------------------|
 middle bit between 2nd and 3rd chorus's    etc   last chorus        etc.
Tap to rate this tab
# A B C D E F G H I J K L M N O P Q R S T U V W X Y Z