Guitaretab - guitar tabs
Song name
# A B C D E F G H I J K L M N O P Q R S T U V W X Y Z

Manic Street Preachers - She Is Suffering tab

Solo

  Eb     C      D      A
--------------------------------|
--------------------------------|
--13b15--10b12--12b14--7b9------|
--------------------------------|
--------------------------------|
--------------------------------|

  Eb     C      D      A
--------------------------------|
--------------------------------|
--13b15--10b12--12b14--19b21----|
--------------------------------|
--------------------------------|
--------------------------------|

  Eb     C      D      A
--------------------------------|
--------------------------------|
--13b15--10b12--12b14--7b9------|
--------------------------------|
--------------------------------|
--------------------------------|
[ Tab from: http://www.guitaretab.com/m/manic-street-preachers/41348.html ]
A
----15-------------------------15------------|
-------16/17---15--17-------------15-17------|
-14----------16--14---16-14-16---------------|
---------------------------------------------|
---------------------------------------------|
---------------------------------------------|

solo continues under verse chords (some little dabbling in key) but when played live he 
just palm-mutes the corresponding power chords and keeps the distortion.  watch the
on the 10th anniversary edition of them playing it on the butt-naked thing.  the bends
are fairly clear there, but he changes the last bit with some little chromatic thing.
its the as the above, but one notes different.  i can't be bothered, and i'm sure you're
clever enough to work it out for yourself, if you even care.  another place you can here
it live is on RicheyEdwards.net.  theres a page with sound files from richeys last gig at the astoria.
Related for She Is Suffering tab
×
She Is Suffering