Song name
# A B C D E F G H I J K L M N O P Q R S T U V W X Y Z

Manic Street Preachers - Soulmates tab

Main riff

-|-------------------------------------------------------|
-|------7---------7-----------7--------------9------7----|
-|----9---8-----9---8------9----8---------6----9-9-------|
-|----------9----------9-----------9--6h7----------------|
-|-7----------7----------7-------------------------------|
-|-------------------------------------------------------|

-|-x-|-
-|-x-|-
-|-8-|-
-|-9-|-
-|-9-|-
-|-7-|-

Chorus:

Em Bm C G
-|-x---x---x---x--|
-|-8---7---8---3--|
-|-9---7---9---4--|
-|-9---9---10--5--|
-|-7---9---10--5--|
-|-x---7---8---3--|
Tap to rate this tab
 
# A B C D E F G H I J K L M N O P Q R S T U V W X Y Z