Guitaretab - guitar tabs
Song name
# A B C D E F G H I J K L M N O P Q R S T U V W X Y Z

Manic Street Preachers - Symm tab

----------------------------------------------------------------------------
S.Y.M.M. - Manic Street Preachers
----------------------------------------------------------------------------
Submitted by Jimmy The Exploder
E-mail: akdookie@hotmail.com

Intro
    E             C             E             C
e------------------------------------------------|
B------------------------------------------------|
G--9-------------5-------------9-------------5---|
D--9-------------5-------------9-------------5---|
A--7-------------3-------------7-------------3---|
E--0---------------------------0-----------------|

Verse

E C E C
The subtext of this song - Ive thought about for so long
E C E C
But its really not the sort of thing - That people want to hear us sing

  Amaj7           Emaj7 Gm7                       Em
e-0----------------3-----3------------------------0------|
B--2----------------3-----3------------------------0-----|
G---1----------------3-----4------------------------0----|
D----2----------------2-----3------------------------2---|
A-----0----------------2-----5------------------------2--|
E-----------------------------3------------------------0-|
The context of this song - Well I could go on and on

 Amaj7             Emaj7  Gm7                     Em
e-0----------------3-----3------------------------0------|
B--2----------------3-----3------------------------0-----|
G---1----------------3-----4------------------------0----|
D----2----------------2-----3------------------------2---|
A-----0----------------2-----5------------------------2--|
E-----------------------------3------------------------0-|
But its still unfashionable - To believe in principles


Chorus

 E A5
 Emaj7                      Amaj7
e-3----------------------------0-----------------|
B--3----------------------------2----------------|
G---3----------------------------1---------------|
D----2----------------------------2--------------|
A-----2----------------------------0-------------|
E------------------------------------------------|
South South Yorkshire Mass Murderer

 A5 D D E
 Dmaj7  Emaj7(2)
e--------------2-----------------------4---------|
B---------------2-----------------------4--------|
G----------------2-----------------------4-------|
D-----------------0-----------------------2------|
A------------------------------------------2-----|
E-------------------------------------------0----|
How can you sleep at night? Sleep at night?
[ Tab from: http://www.guitaretab.com/m/manic-street-preachers/68058.html ]
 E A5
 Emaj7(1) Amaj7
e-3----------------------------0-----------------|
B--3----------------------------2----------------|
G---3----------------------------1---------------|
D----2----------------------------2--------------|
A-----2----------------------------0-------------|
E------------------------------------------------|
South South Yorkshire Mass Murderer

 A5 D D E
 Dmaj7 Emaj7(2)
e--------------2-----------------------4---------|
B---------------2-----------------------4--------|
G----------------2-----------------------4-------|
D-----------------0-----------------------2------|
A------------------------------------------2-----|
E-------------------------------------------0----|
How can you sleep at night? Sleep at night?

Verse

Chorus

Solo

e--------------------------------------------------------------------------|
B-7b9-----7b9r7~~--7-7-7-7sssssss16-16p14-14-14s12-12-12-12s10-10-10-10s9--|
G-----9-5------------------------------------------------------------------|
D--------------------------------------------------------------------------|
A--------------------------------------------------------------------------|
E--------------------------------------------------------------------------|

e-------------------------------7~-------------------------------------|
B--9-9-9s7-7-7-7s5b~~----5-7bu~----7bd~---------------5-7bu~~~~~-------|
G----------------------7----------------------------7------------------|
D----------------------------------------------------------------------|
A----------------------------------------5b7~~~~~~~~~~~~~~~~~----------|
E----------------------------------------------------------------------|

e---------------------------------------------------------------|
B--15bu---------------------------------------------------------|
G-------14bu--12bu--7~~---9rb10r7--9rb10r7--9rb10r7--9rb10r7----|
D---------------------------------------------------------------|
A---------------------------------------------------------------|
E---------------------------------------------------------------|

e--16-------15b16sr15~~-------------7~--------------------------|
B-----15-13----------------5-7-7bu~------------------5-7s9~~~---|
G-----------------------7--------------------5h7~--7------------|
D---------------------------------------------------------------|
A-------------------------------------5b~~----------------------|
E---------------------------------------------------------------|


Outro

e---4------------0------------2------------4--------|
B----4------------2------------2------------4-------|
G-----4------------1------------2------------4------|
D------2------------2------------0------------2-----|
A-------2------------0-------------------------2----|
E---------------------------------------------------|
Related for Symm tab