Song name
# A B C D E F G H I J K L M N O P Q R S T U V W X Y Z

Manic Street Preachers - Imperial Bodybags tab

Manic Street Preachers - Imperial Bodybags
Send Away The Tigers - 2007

Intro

Rhythm
e------------------|
B------------------|
G------------------|
D------------------| x4
A------------------|
E-0-0-3-0-0-0-3-0--|

Verse

Rhythm
e------------------|
B------------------|
G------------------|
D------------------| x8
A------------------|
E-0-0-3-0-0-0-3-0--|

Lead (on 3rd and 7th times of rhythm)

e-----------------|
B-5-5-7-8-7-5---5-|
G-------------7---|
D-----------------|
A-----------------|
E-----------------|

Rhythm

e------------------|
B------------------|
G------------------|
D------------------| x2
A-2-2-5-2-2-2-5-2--|
E------------------|


Lead (on 2nd time of rhyhtm)

e-------|
B-----7-|
G-7-7---|
D-------|
A-------|
E-------|

Rhythm
e----------------|
B----------------|
G----------------|
D----------------| x2
A-0-0-3-0-0-0-3--|
E----------------|

Lead (on 2nd time of rhyhtm)

e-------|
B-----5-|
G-5-5---|
D-------|
A-------|
E-------|

Rhythm
e------------------|
B------------------|
G------------------|
D------------------| x4
A------------------|
E-0-0-3-0-0-0-3-0--|

Lead (on 3rd time of rhythm)

e-----------------|
B-5-5-7-8-7-5---5-|
G-------------7---|
D-----------------|
A-----------------|
E-----------------|

Rhythm and Lead

e------------------|
B------------------|
G------------------|
D------------------| x8
A------------------|
E-0-0-3-0-0-0-3-0--|

e------------------|
B------------------|
G------------------|
D------------------| x2
A-2-2-5-2-2-2-5-2--|
E------------------|

e----------------|
B----------------|
G----------------|
D----------------| x2
A-0-0-3-0-0-0-3--|
E----------------|

e------------------|
B------------------|
G------------------|
D------------------| x2
A------------------|
E-0-0-3-0-0-0-3-0--|

Pre-Chorus

Rhythm and Lead

e-----------------------------------------|
B-----------------------------------------|
G-7-7-7-7-7-7-7-7-7-7---------------------|
D-7-7-7-7-7-7-7-7-7-7-7-7-7-7-7-7-7-7-7-7-|
A-5-5-5-5-5-5-5-5-5-5-7-7-7-7-7-7-7-7-7-7-|
E---------------------5-5-5-5-5-5-5-5-5-5-|

e-------------------------------|
B-------------------------------|
G-5-5-5-5-5-5-5-5-5-5-----------|
D-5-5-5-5-5-5-5-5-5-5-5-5-5-5-5-|
A-3-3-3-3-3-3-3-3-3-3-5-5-5-5-5-|
E---------------------3-3-3-3-3-|

Rhythm

e-----------|
B-----------|
G-----------|
D-5-5-5-5-5-|
A-5-5-5-5-5-|
E-3-3-3-3-3-|

Lead

e---------------|
B---------------|
G---------------|
D---------------|
A---------------|
E-3-3-5-5-7-7-8-|

Rhythm

e---------------------|
B---------------------|
G-7-7-7-7-7-7-7-7-7-7-|
D-7-7-7-7-7-7-7-7-7-7-|
A-5-5-5-5-5-5-5-5-5-5-|
E---------------------|

Lead

e---------------------|
B---------------------|
G---7-7-7-7-7-7-7-7-7-|
D---7-7-7-7-7-7-7-7-7-|
A-5-5-5-5-5-5-5-5-5-5-|
E---------------------|

Rhythm and Lead

e-----------------------------------------|
B-----------------------------------------|
G-7-7-7-7-7-7-7-7-7-7---------------------|
D-7-7-7-7-7-7-7-7-7-7-7-7-7-7-7-7-7-7-7-7-|
A-5-5-5-5-5-5-5-5-5-5-7-7-7-7-7-7-7-7-7-7-|
E---------------------5-5-5-5-5-5-5-5-5-5-|

e---------------------|
B---------------------|
G-5-5-5-5-5-5-5-5-5-5-|
D-5-5-5-5-5-5-5-5-5-5-|
A-3-3-3-3-3-3-3-3-3-3-|
E---------------------|

Chorus

e---------------------------------------------------------------|
B---------------------------------------------------------------|
G---------------------7-7-7-7-7-7-7-7-7-7-7---------------------|
D-5-5-5-5-5-5-5-5-5-5-7-7-7-7-7-7-7-7-7-7-7-3-3-3-3-3-3-3-3-3-3-|
A-5-5-5-5-5-5-5-5-5-5-5-5-5-5-5-5-5-5-5-5-5-3-3-3-3-3-3-3-3-3-3-|
E-3-3-3-3-3-3-3-3-3-3-----------------------1-1-1-1-1-1-1-1-1-1-|

e-----------|
B-----------|
G-5-5-5-5-5-|
D-5-5-5-5-5-|
A-3-3-3-3-3-|
E-----------|

Rhythm

e-----------|
B-----------|
G-5-5-5-5-5-|
D-5-5-5-5-5-|
A-3-3-3-3-3-|
E-----------|

Lead

e---------------|
B---------------|
G---------------|
D---------------|
A-3-3-2-2-0-0---|
E-------------3-|

Rhythm and Lead

e---------------------|
B---------------------|
G---------------------|
D-5-5-5-5-5-5-5-5-5-5-|
A-5-5-5-5-5-5-5-5-5-5-|
E-3-3-3-3-3-3-3-3-3-3-|

e-------------------------------------------|
B-------------------------------------------|
G-7-7-7-7-7-7-7-7-7-7-7---------------------|
D-7-7-7-7-7-7-7-7-7-7-7-3-3-3-3-3-3-3-3-3-3-|
A-5-5-5-5-5-5-5-5-5-5-5-3-3-3-3-3-3-3-3-3-3-|
E-----------------------1-1-1-1-1-1-1-1-1-1-|

e---------------------|
B---------------------|
G-5-5-5-5-5-5-5-5-5-5-|
D-5-5-5-5-5-5-5-5-5-5-|
A-3-3-3-3-3-3-3-3-3-3-|
E---------------------|

Verse
Pre Chorus
Chorus

Solo

Rhythm plays

e------------------|
B------------------|
G------------------|
D------------------| x6
A------------------|
E-0-0-3-0-0-0-3-0--|

Lead

  |-----3-----|     |-----3---------|
e-----------------------------------|
B-----------------------------------|
G-----------------------------------|
D--4~----4~----4~----4~----4~----4~-|
A-----------------------------------|
E-----------------------------------|

  |---3--------------------|
e--------------------------|
B--------------------------|
G--------------------------|
D--4p--2p--0-----0--2----2-|
A-------------2------------|
E--------------------------|

  |-----3-----|     |-----3---------|
e-----------------------------------|
B-----------------------------------|
G-----------------------------------|
D--4~----4~----4~----4~----4~----4~-|
A-----------------------------------|
E-----------------------------------|

  |---3-----------------------|
e-----------------------------|
B-----------------------------|
G-----------------------------|
D--4p--2p--0-----0--2----2--2-|
A-------------2---------------|
E-----------------------------|

  |---3--|   |---3------|
e-----------------------|
B-----------------------|
G-----------------------|
D--2p--0----------------| x2
A---------2p--0---------|
E----------------3p--0--|

Rhyhtm stops here

   |--3--|  |---3---|  |---3---|  |---3------|
e--------------------------------------------|
B--/3--3--3--0h--3p--0-----------------------|
G-----------------------0h--2p--0------------|
D----------------------------------0h--2p--0-|
A--------------------------------------------|
E--------------------------------------------|

e-------------------------|
B-------------------------|
G-------------------------|
D-------------------------|
A--3b----3pb5----3pb5--3--|
E-------------------------|

Rhythm plays Pre-Chorus until end of solo

e--------------------------------------------------|
B--10-------10-------10------10--------8------7----|
G--12b14----12b14----12b14---12b14----10b8----9b11-|
D--------------------------------------------------|
A--------------------------------------------------|
E--------------------------------------------------|

e------------------------------------------------|
B---8--------8--------8-------8-----7-------5----|
G---10b12----10b12----10b12---10b---9b11----7b9--|
D------------------------------------------------| x2
A------------------------------------------------|
E------------------------------------------------|

e--------------------------------------------------|
B--------12----------12-------12----12----12----12-|
G--------------------------------------------------|
D--12----------12----------12----12----12----12----|
A--------------------------------------------------|
E--------------------------------------------------|

            |----3---|   |---3---|    |----3------|
e-------10----------------------------------------|
B--10-------13p--10------10-----------------------|
G--12b---------------12------12--11h--12p--11-----|
D----------------------------------------------12-|
A-------------------------------------------------|
E-------------------------------------------------|

e-----------------------|
B-----------------------|
G--12----12----12----12-|
D-----------------------|
A-----------------------|
E-----------------------|

   |---------3---------|         |---------3------------|
e-------------------------------------------------------|
B-------------------------------------------------------|
G--17--------16--------14--------12--------11--------11-|
D-------------------------------------------------------|
A--15--------14--------12--------10---------9---------9-|
E-------------------------------------------------------|

e--------------------|
B--12----12----13p12-|
G--12----12----12----|
D--12----12----12----|
A--------------------|
E--------------------|

e-------------------------|
B--13----13pb15r13p12-----|
G----------------------12-|
D-------------------------|
A-------------------------|
E-------------------------|

Chorus
Outro

Rhythm

e------------------|
B------------------|
G------------------|
D------------------| x6
A------------------|
E-0-0-3-0-0-0-3-0--|

Lead

   |----3---|   |----3----|   |----3---|    |---3-------|
e--15p--12----------------------------------------------|
B-----------15--12h--15p--12----------------------------|
G-----------------------------14--12h--14p--12------12--|h
D-----------------------------------------------14------|
A-------------------------------------------------------|
E-------------------------------------------------------|

   |----3---|   |----3----|   |----3------------|
e-----------------------------------------------|
B-----------------------------------------------|
G--14p--12--------------------------------------|
D-----------14--12h--14p--12--------------------|
A-----------------------------14p--12p--10------|
E-------------------------------------------12\-|

e-------------------------------------------------|
B-------------------------------------------------|
G-------------------------------------------------|
D-------------------------------------------------|
A-------------------------------------------------|
E--0--0--3--0--0--0--3--0--0--0--3--0--0--0--3--0-|


  |---3--|   |---3------|
e-----------------------|
B-----------------------|
G-----------------------|
D--2p--0----------------| x2
A---------2p--0---------|
E----------------3p--0--|

Rhythm and Lead

e------------|
B------------|
G------------|
D-2----x-x-2-|
A-2----x-x-2-|
E-0----x-x-0-|
Tap to rate this tab
# A B C D E F G H I J K L M N O P Q R S T U V W X Y Z