Guitaretab - guitar tabs
Song name
# A B C D E F G H I J K L M N O P Q R S T U V W X Y Z

Manic Street Preachers - Send Away The Tigers tab

---------------------------------------------------------------------------------------------|
SEND AWAY THE TIGERS - Manic Street Preachers
---------------------------------------------------------------------------------------------|
Tabbed by: Chris Colyer
Email: csc501@york.ac.uk

Tuning: Standard

Keyboard section (A,C#,F#)
Guitar Intro part 1:
e|------------------------------2--2-4-4-4-2-------------------------------|
B|------------------------------2--2-2-2-2-2-------------------------------|
G|----2--XX---------------------2----2-2-2---------------------------------|
D|----2--XX------6--XX-------4---------------------------------------------|
A|-0-----XX------6--XX-------4---------------------------------------------|
E|-------------4----XX-----2-----------------------------------------------|
Verse: (Lick)
e|---------------------------------------------9---------------------------|
B|--7-7-7-5-7-5-------------------------------12b14------------------------|
G|--------------6----6-6-4-6-4---------------------------------------------|
D|----------------------------4--4-2-4-2-----------------------------------|
A|--------------------------------------4----------------------------------|
E|---------------------------------------2-2-------------------------------|
Main Section:
e|-----------------------------x-x---4-4-4-2-----------------------------|
B|-----------------------------x-x---2-2-2-2-----------------------------|
G|----2--XX--------------------------------------------------------------|x2
D|----2--XX------6--XX-------4-------------------------------------------|
A|-0-----XX------6--XX-------4-------------------------------------------|
E|-------------4----XX-----2---------------------------------------------|
Verse out: (this bit is very faint so this is only the jist of it)
e|-------------------------------------------------------------------------|
B|-------------------------------------------------------------------------|
G|-------------------------------------------------------------------------|
D|--7--7--6---6-4---4-2-------2-9--9-7--7-6--6-9---------------------------|
A|--5--5--4---4-2---2-0-------0-7--7-5--5-4--4-7---------------------------|
E|-------------------------------------------------------------------------| Main Section:
e|-----------------------------x-x---4-4-4-2-------------------------------|
B|-----------------------------x-x---2-2-2-2-------------------------------|
G|----2--XX----------------------------------------------------------------|x2
D|----2--XX------6--XX-------4---------------------------------------------|
A|-0-----XX------6--XX-------4---------------------------------------------|
E|-------------4----XX-----2-----------------------------------------------|
Verse out:
e|-----------------------------------------------------------------------|
B|-----------------------------------------------------------------------|
G|---------------------------------------------4-4-4---4-4---------------|
D|--7--7--6---6-4---4-2-------2-9--9-7--7-6--6-4-4-4---4-4---------------|
A|--5--5--4---4-2---2-0-------0-7--7-5--5-4--4-2-------------------------|
E|-----------------------------------------------------------------------|
[ Tab from: http://www.guitaretab.com/m/manic-street-preachers/89339.html ]
Chorus
e|-----------------------------------------------------------------------|
B|-----------------------------------------------------------------------|
G|--11-11-11-11-11-11-11-11--9-9-9--8--13-13-13-13-13-13-13-13--9-9-9-6-6|x2
D|--11-11-11-11-11-11-11-11--9-9-9--9--13-13-13-13-13-13-13-13--9-9-9-6-6|
A|--9--9--9--9--9--9--9--9---7-7-7--6--11-11-11-11-11-11-11-11--7-7-7-4-4|
E|-----------------------------------------------------------------------|
  oh oh oh oh oh oh oh     Palm Mute
e|-------------------------------------------------------------------------|
B|-------------------------------------------------------------------------|
G|-------------------------7-7-7-7-7-7-7-7---------------------------------|
D|-------------------------7-7-7-7-7-7-7-7---------------------------------|
A|-9--7--5--4--2-----------5-5-5-5-5-5-5-5---------------------------------|
E|---------------5--2------------------------------------------------------|

Verse
(half length)

Chorus

Then:
  oh oh oh oh oh oh oh     Palm Mute
e|-------------------------------------------------------------------------|
B|-------------------------------------------------------------------------|
G|-------------------------7-7-7-7-7-7-7-7---------------------------------|
D|-------------------------7-7-7-7-7-7-7-7---------------------------------|
A|-9--7--5--4--2-----------5-5-5-5-5-5-5-5---------------------------------|
E|---------------5--2------------------------------------------------------|

Solo
e|---------------------------------------------9---------------------------|
B|--7-7-7-5-7-5-------------------------------12b14------------------------|
G|--------------6----6-6-4-6-4---------------------------------------------|
D|----------------------------4--4-2-4-2-----------------------------------|
A|--------------------------------------4----------------------------------|
E|---------------------------------------2-2-------------------------------|

e|-------------------------------------------------------------------------|
B|--7-7-7-5-7-5------------------------------------------------------------|
G|--------------6----6-6-4-6-4---------------------------------------------|
D|----------------------------4--4-2-4-2-----------------------------------|
A|--------------------------------------4----------------------------------|
E|---------------------------------------2-2-------------------------------|

e|------------------------------4b5-5-5-5-5-4-2-4~-------------------------|
B|----------2-5--5b6-5-2-5b6-2---------------------------------------------|
G|------2-4----------------------------------------------------------------|
D|--2-4--------------------------------------------------------------------|
A|-------------------------------------------------------------------------|
E|-------------------------------------------------------------------------|
                                         hold bend
e|-----------------------2h5-------5---7bu9-9-9-9bd7-5-4~-----------------|
B|-------------2h5---2h5-------5h7----------------------------------------|
G|----2h4---2h4-----------------------------------------------------------|
D|-2h4--------------------------------------------------------------------|
A|------------------------------------------------------------------------|
E|------------------------------------------------------------------------|

Chorus x2

Intro x3

This is a first draft really, general drift, but undoubtedly with mistakes, feel free to e-mail.

| /  slide up
| \  slide down
| h  hammer-on
| p  pull-off
| ~  vibrato
| +  harmonic
| x  Mute note
===============================================================================
Related for Send Away The Tigers tab
Advertisement will be closed in 10 seconds