Guitaretab - guitar tabs
Song name
# A B C D E F G H I J K L M N O P Q R S T U V W X Y Z

Manic Street Preachers - You Know Its Going To Hurt tab

Manic Street Preachers - You Know Its Going To Hurt - Lead.


E |-----------------------------------------------------------------------|
B |-----------------------------------------------------------------------|
G |-5-7-8--5-7-8--3-7-8-7-4-1-0-------------------------------------------|
D |-----------------------------------------------------------------------|
A |-----------------------------------------------------------------------|
E |-----------------------------------------------------------------------| 

X2

E |-----------------------------------------------------------------------|
B |-----------------------------------------------------------------------|
G |---3-0------5-1------5-1------7-3-0--0-7-3-0--0-8-5--13-8-6-15---------|
D |-5-----1--1-----3--3-----3--3------------------------------------------|
A |-----------------------------------------------------------------------|
E |-----------------------------------------------------------------------|

E |-----------------------------------------------------------------------|
B |-----------------------------------------------------------------------|
G |---3-0------5-1------5-1------7-3-0--0-7-3-0--0-8-5--13-8-6-4-3-0------|
D |-5-----1--1-----3--3-----3--3-------------------------------------0----|
A |-----------------------------------------------------------------------|
E |-----------------------------------------------------------------------|

E |-----------------------------------------------------------------------|
B |-----------------------------------------------------------------------|
G |-5-0---5--3-8-7--------------------------------------------------------|
D |-----3-----------------------------------------------------------------|
A |-----------------------------------------------------------------------|
E |-----------------------------------------------------------------------|
[ Tab from: http://www.guitaretab.com/m/manic-street-preachers/97836.html ]
E |-----------------------------------------------------------------------|
B |-----------------------------------------------------------------------|
G |-5-0---5--3-7^---------------------------------------------------------|
D |-----3-----------------------------------------------------------------|
A |-----------------------------------------------------------------------|
E |-----------------------------------------------------------------------|

E |-----------------------------------------------------------------------|
B |-----------------------------------------------------------------------|
G |-5-7h8p7--5-7h8p7--3-7h8p7-4-1-0---------------------------------------|
D |-----------------------------------------------------------------------|
A |-----------------------------------------------------------------------|
E |-----------------------------------------------------------------------| 

X2

E |-----------------------------------------------------------------------|
B |-----------------------------------------------------------------------|
G |---3-0------5-1------5-1------7-3-0--0-7-3-0--0-8-5--13-8-6-15---------|
D |-5-----1--1-----3--3-----3--3------------------------------------------|
A |-----------------------------------------------------------------------|
E |-----------------------------------------------------------------------|

E |-----------------------------------------------------------------------|
B |-----------------------------------------------------------------------|
G |---3-0------5-1------5-1------7-3-0--0-7-3-0--0-8-5--13-8-6-4-3-0------|
D |-5-----1--1-----3--3-----3--3-------------------------------------0----|
A |-----------------------------------------------------------------------|
E |-----------------------------------------------------------------------|

I'm pretty certain that this is 95% correct.

JenniferGDBC@hotmail.com
Related for You Know Its Going To Hurt tab
Advertisement will be closed in 10 seconds