Song name
# A B C D E F G H I J K L M N O P Q R S T U V W X Y Z

Manic Street Preachers - Valley Boy tab

Help us improve GuitareTab! Take a short survey!
Artist: Manic Street Preachers
Album: Lipstick Traces: A Secret History Of
Title: Valley Boy
Tabbed by: Jon1001

Tuning: Standard


Intro

e|------------------------------------------------|
B|-----------------------------10-10h12p10--------|
G|--------8-8h9p8------------9-------------9------|
D|------9---------9-------11-----------------11---|
A|----9-------------9--/9-------------------------|
E|--7---------------------------------------------|

e|------------------------------------------------|
B|----------8--x-8--8-8---------------------------|
G|----------7--x-7--7-7---------6-6/4-4-----------|
D|----------9--x-9--9-9-------7---------7---------|
A|---9/8-7------------------7---------------------|
E|------------------------5-----------------------|

Verse 1

B
Here I am in Amsterdam
F#m
I like it here they speak my language
Em			A
Even though it's not my own
B
It's got BBC for comfort zone
    F#m				  Em        A
And best of all, it's got Marks & Spencers
Em		 A		   B
Equality for the masses never felt better


Chorus

C#m	   F#      Ebm		      G#
Some of my dreams, they may have come true
C#m	       F#		Bm7
But so have my nightmares which I can't get through


Verse 2

B
And now I've lost the power to speak
    F#m
And now I've lost the power to eat
Em			 A
Idle and out of touch in Europe
B
Nothing's gone and nothing's changed
F#m				 Em   A
All that was before will still remain
     Em		 A	     B
It's too late to learn a new currency


Chorus

C#m	   F#      Ebm		      G#
Some of my dreams, they may have come true
C#m	       F#		Bm7
But so have my nightmares which I can't get through



Great song, one of the Manics best.  It's a shame it's not more well known.  Please rate!
Related for Valley Boy tab