Song name
# A B C D E F G H I J K L M N O P Q R S T U V W X Y Z

Manntis - Resist And Overcome tab

well this is my first tab and its probably not right but it sounds right to me.

E|---------------------------------------------------------------|
B|---------------------------------------------------------------|
G|---------------------------------------------------------------|
D|---------------------------------------------------------------|
A|-000-0-0-0-98-000-0-0-0-76-000-0-0-0-98--3-2-0---------0-------|
D|-000-0-0-0-98-000-0-0-0-76-000-0-0-0-98--------5-2-3-5---------|      X2


|------------------------------------------------------------------|
|------------------------------------------------------------------|
|------------------------------------------3-2-0-----------0-------|
|-----------98-----------76------------98--------3-0-1-5-3---------|
|-000-0-0-0----000-0-0-0----000-0-0-0------------------------------|
|-000-0-0-0----000-0-0-0----000-0-0-0------------------------------|

-----------------|
-----------------|
-3-2-0---------0-|
-------3-0-1-3---|
-----------------|
-----------------|      x2


|------------------------------------------------------------------|
|------------------------------------------------------------------|
|------------------------------------------------------------------|
|------------------------------------------------------------------|
|---------2-0-2----------2-0-2----------2-0-2------0-2-3-2h3p2-0-2-|
|-222-2-2--0-0-0-333-3-3--0-0-0-000-0-0--0-0-0-000-----------------|


okay. i finally found out how to update the tab so i fixed the big problems.
Tap to rate this tab
 
# A B C D E F G H I J K L M N O P Q R S T U V W X Y Z