Song name
# A B C D E F G H I J K L M N O P Q R S T U V W X Y Z

Manntis - Reflections Of You tab

-----------------------------------------------------------------------------
			  Reflection's Of You - Manntis
-----------------------------------------------------------------------------
Tabbed by: ShadowSoldier08
Email: Shadowsoldier08@yahoo.com

Tuning:D-A-D-G-B-e


Yo, i didnt see much manntis tabs here, even though they are a great band, so i
decided to do one.  Even though it is only an intro, it sounds really close to
the tab.  More than likely one of you peeps will be inspired by this song and
finish it up for me.  I would, but my A-String just broke yesterday when i was
tabbin it, which is solely why this is only an intro and not much of it.  

P.S. This is my first tab, im sure you can tell.


Gtr.1                 (0:00 - 0:31)
e|-----------------| _______________
B|-----------------|                |
G|-----------------| 2X
D|-----------------|                |
A|-0-5-0-5-7-0-8-7-|
D|-----------------|                |

e|-----------------|                |
B|-----------------|
G|-----------------|                |
D|-----------------|
A|-0-3-0-3-5-0-7-5-|                |
D|-----------------|
                                    |
e|-----------------|
B|-----------------|                |
G|-----------------|
D|-----------------|                |
A|-0-2-0-2-3-0-5-3-|
D|-----------------| _______________|

*-*-*-*-*-*-*-*-*-*-*-*-*

Gtr.2 (0:05)
e|-----------------|         
B|-----------------|                                     
G|-----------------|                               
D|-0~--------------|                                    
A|-0~--------------|                                             
D|-0~--------------|                                        
          
(0:11)                    
e|-----------------|
B|-----------------|
G|-----------------|
D|-7~--------------|
A|-7~--------------|
D|-7~--------------|

(0:16)
e|-----------------|          
B|-----------------|                                     
G|-----------------|                                 
D|-0~--------------|                                    
A|-0~--------------|                                              
D|-0~--------------|                                        

(0:19)
e|-----------------|
B|-----------------|
G|-----------------|
D|-12\-------------|
A|-12\-------------|
D|-12\-------------|
                    

| /  slide up
| \  slide down
| h  hammer-on
| p  pull-off
| ~  vibrato
| +  harmonic
| x  Mute note
=============================================================================
Tap to rate this tab
# A B C D E F G H I J K L M N O P Q R S T U V W X Y Z