Song name
# A B C D E F G H I J K L M N O P Q R S T U V W X Y Z

Manos De Topo - Es Feo chords

Highlighted       Show chord diagrams
F                  G                          Am
 Me gusta oírte roncar y que haya pelo en el aseo,
                    F  G                  Am
esperarte en el portal  las noches de invierno.
F                  G                     Am
  Me gusta ir a cenar a tu casa en año nuevo,
                  F  G                 Am      F    G
bromear con tu papá,  poder llamarle suegro.

         Am                                         F
Y que te vayas con otros que no hacen ni la mitad por ti,
G    Am   F    G
 es feo.
         Am                                            F
Y que te acuestes con otros que no hacen ni la mitad por ti,
G        Am
  es muy feo.

F                   G                           Am
 Prefiero irte a buscar a que vuelvas sola en metro,
                    F  G                      Am
y besarte al despertar  sin que importe tu aliento.
F                G                        Am
 He conseguido ser un tipo de lo más honrado,
                          F  G              Am      F    G
puedes quedarte con el bebé,  olvida el abogado.

         Am                                         F
Y que te vayas con otros que no hacen ni la mitad por ti,
G    Am   F    G
 es feo.
         Am                                            F
Y que te acuestes con otros que no hacen ni la mitad por ti,
G        Am
  es muy feo.


(Xilofono en notas de guitarra)

  F      G      Am     F G   Am

E-1--3-5-3--7-8-5--7-8-1-0---5-|
B--------------------------3---|
G------------------------------|
D------------------------------|
A------------------------------|
E------------------------------|
   Me gusta oirte roncar...

E-1--3-5-3--7-8-5--7-8-1-0--5---5-5-555-5-|
B-------------------------3---------------|
G-----------------------------------------|
D-----------------------------------------|
A-----------------------------------------|
E-----------------------------------------|
   Me gusta ir a cenar...

(al entrar los violines)
  F       G
E---------3-1-0-----|
B-6-5-3-1-------3---|
G-------------------|
D-------------------|

  Am     F   G     Am
E-5---5------------5------|
B--------8---5--3---------|
G-------------------------|
D-------------------------|
A-------------------------|
E-------------------------|
Y que te vayas con...

  F       G
E---------3-1-0-----|
B-6-5-3-1-------3---|
G-------------------|
D-------------------|

Am     F   G     Am
E-5---5------------5------|
B--------8---5--3---------|
G-------------------------|
D-------------------------|
A-------------------------|
E-------------------------|
Y que te acuestes con...

http://www.manosdetopo.com/
Tap to rate this tab
 
# A B C D E F G H I J K L M N O P Q R S T U V W X Y Z