Song name
# A B C D E F G H I J K L M N O P Q R S T U V W X Y Z

Manowar - Let The Gods Decide tab

-------------------------------------------------------------------------------
			   Let the Gods Decide - ManOwaR
-------------------------------------------------------------------------------
Song:      Let the Gods Decide
Album:     Thunder In the Sky (EP)
Artist:    ManOwaR
(P)&(C):   2009 Magic Circle Music Ltd.

Tabbed by: Michael "The Elder" Schreiber
Email:     metal.warrior@gmx.net

Tuning:    E-A-D-G-B-e

Comment:   As a greenhorn, I was not able to transcribe the solo ^^
           Would be nice if someone could check the transcription so far.
           Please send me corrections or the transcription for the solo.
           Thanx, stay true and
           HAIL and KILL!


Intro:
------

I'm not sure about that, but it sounds like sliding downto d.

e|---------------------------|
B|----------------------7\5--|
G|---------------------------|
D|---------------------------|
A|---------------------------|
E|---------------------------|


Riff 1:
-------
               5x
e|---------------------------|---------------------------|----
B|---7----7----7----7----7p5-|-7----7----7----7----8-7-6-|----
G|---------------------------|---------------------------|-5--
D|---------------------------|---------------------------|-5--
A|---------------------------|---------------------------|-7--
E|---------------------------|---------------------------|----
     .    .    .    .          .    .    .    .    \___/


Riff 2:
-------

     "I am the keeper of the laws"
e|---------------------------|---------------------------|
B|---------------------------|---------------------------|
G|-7-------------------------|---------------------------|
D|-7-------------------------|---------------------------|
A|-5-------------------------|-0-0-0-0-0-0-0-0-0-0-0-0-0-|
E|---------------------------|---------------------------|
                              m m m m m m m m m m m m m


         "decided by the gods"
e|---------------------------|
B|---------------------------|
G|-------3-----------------2-|
D|-------3-----------------2-|
A|-0-0-0-1-----------------0-|
E|---------------------------|
   m m m


Riff 3:
-------

    "Our ancestors cheer from far beyond the grave,"
e|---------------------------|---------------------------|
B|---------------------------|---------------------------|
G|---------7-----------------|---------------------------|
D|---------7-----------------|---------------------------|
A|---------5-----------------|-0-0-0-0-0-0-0-0-0-0-0-0-0-|
E|---------------------------|---------------------------|
                              m m m m m m m m m m m m m


      "one will survive, face me        then let the gods decide!"
e|---------------------------|---------------------------|
B|---------------------------|---------------------------|
G|-------2----------3-----5--|--------------10------9----|
D|-------2----------3-----5--|--------------10------9----|
A|-0-0-0-0----------1-----3--|--------------8-------7----|
E|---------------------------|---------------------------|



Riff 4:
-------

"decide!"
    "One will survive ..."
       "Face me ..."
e|---------------------------|
B|-7----7----7----7----8-7-6-|
G|---------------------------|
D|---------------------------|
A|---------------------------|
E|---------------------------|
   .    .    .    .    \___/      


Riff 5:
-------

e|---------------------------|
B|---7----7----7----7----7p5-|
G|---------------------------|
D|---------------------------|
A|---------------------------|
E|---------------------------|
     .    .    .    .         


Song:
-----

   Intro
   Riff 1
   Riff 2

   Riff 1
   Riff 2
   Riff 3

   Riff 1
   Riff 2
   Riff 3

   Solo   (not transcribed)

   Riff 1 (solo continues on 2nd guitar)
   Riff 2
2x Riff 3

3x Riff 4 (another solo starts on 2nd guitar)
   Riff 5 (solo continues on 2nd guitar)
3x Riff 4 (solo continues on 2nd guitar)
   Riff 5 (solo continues on 2nd guitar)
3x Riff 4 (solo continues on 2nd guitar)



| \  slide down
| p  pull-off
| .  staccato
|\_/ legato
===============================================================================
Tap to rate this tab
# A B C D E F G H I J K L M N O P Q R S T U V W X Y Z