Song name
# A B C D E F G H I J K L M N O P Q R S T U V W X Y Z

Manowar - Defender tab

-----------------------------------------------------------------------------
			     Defender - Manowar
                         Fighting the World Album
-----------------------------------------------------------------------------

Intro:

e|---------------------------------|--------------------------------|
B|---------------------------------|--------------------------------|
G|-------2-------------------------|-----2-------2-2------2-------2-|
D|-----2---2-----------------------|---2---2---2--2-2---2---2---2---|
A|---0-------0---------------------|-0-------0--------0-------0-----|
E|---------------------------------|--------------------------------|

e|-------------------------------------------------------5------------|
B|--------------------------------1---1---3/15------------------------|
G|---------0--------2---2-------2---2---0-----------------------------|
D|-------2----0-2-0---0---0-2-3---------------------------------------|
A|-0-2-3---------------------------------------3-----0----------------|
E|--------------------------------------------------------------------|


The rest is rather easy to figure out by ear. 

My first tab, Enjoy.
Tap to rate this tab
 
# A B C D E F G H I J K L M N O P Q R S T U V W X Y Z