Song name
# A B C D E F G H I J K L M N O P Q R S T U V W X Y Z

Manowar - Battle Hymn tab

Manowar - Battle Hymn Intro
Tabbed by: Evilized

This is not as hard to play as it looks to be. Just listen to the song and you'll
know how to play. The final time is slowing down 'till the end.
I got a bit tired by doing this so I'll just leave the intro.

e|-------------7--12--7--7-----7--5-------5----5--3-----3--2-----2----|
B|------8--10--------------8--8-----7---7---7-7-----5--5-----3--3-----|
G|----9--9---9--9---9--9-----9--------7------7--------5--------4------|
D|--------------------------------------------------------------------|
A|-0------------------------------------------------------------------|
E|--------------------------------------------------------------------|

e|-------------7--12--7--7-----7---5------5-5---5----3---3--2-----2----|
B|------8--10--------------8--8------7--7----7-7-7-7--5-5-----3--3-----|
G|----9--9---9--9---9--9-----9--------7-------7---7----5--------4------|
D|---------------------------------------------------------------------|
A|-0-------------------------------------------------------------------|
E|---------------------------------------------------------------------|

e|-------------7--12--7--7---7---5---5---5---5----3---3----2---2-------|
B|------8--10-------------8-8-8-8-7-7-7-7-7-7-7-7--5-5-5-5--3-3-3-3----|
G|----9--9---9--9---9--9---9---9---7---7---7---7----5---5----4---4-----|
D|---------------------------------------------------------------------|
A|-0-------------------------------------------------------------------|
E|---------------------------------------------------------------------|

e|-------------7--12--7--7-----7--5-------5----5--3-----3--2-----2----|
B|------8--10--------------8--8-----7---7---7-7-----5--5-----3--3-----|
G|----9--9---9--9---9--9-----9--------7------7--------5--------4------|
D|--------------------------------------------------------------------|
A|-0------------------------------------------------------------------|
E|--------------------------------------------------------------------|

This one is dedicated to 2d in Dubrovnik.And someone special. 2d - You know who you are!
Tap to rate this tab
# A B C D E F G H I J K L M N O P Q R S T U V W X Y Z