Manowar - Brothers Of Metal tab

 ManOwaR-Brother of Metal (solo)
Guitar Solo:
(Do not forget the low open E whammy dive ;])
   T     T     T     T     T     T     T     T     T     T     T     T
|-15p12-15p12-15p12-15p12-15p12-15p12-17p14-17p14-17p14-17p14-17p14-17p14-|
|-------------------------------------------------------------------------|
|-------------------------------------------------------------------------|
|-------------------------------------------------------------------------|
|-------------------------------------------------------------------------|
|-------------------------------------------------------------------------|

   T     T     T     T     T     T     T     T     T     T     T   
|-24p15-24p15-24p15-24p15-24p15-24p15-24p15-24p15-24p15-24p15-24p15-17-19-|
|-------------------------------------------------------------------------|
|-------------------------------------------------------------------------|
|-------------------------------------------------------------------------|
|-------------------------------------------------------------------------|
|-------------------------------------------------------------------------|

|-20-19-20-19-------------------------------------------------------------|
|-------------20-19-20-19-17-15-17-15-13-15-13-12-13-12----12-------------|
|-------------------------------------------------------14----14-12----12-|
|-------------------------------------------------------------------14----|
|-------------------------------------------------------------------------|
|-------------------------------------------------------------------------|

|-----------------------------|---------------------------------------|------------------------|
|-----------------------------|---------------------------------------|------------------------|
|--------------------------12-|-14b16---14p12----12-14b16-14-12----12-|------------------------|
|-14-13-12--------------14----|---------------14----------------14----|-14-13-12---------------|
|----------14-13-12-14--------|---------------------------------------|----------14-13-12------|
|-----------------------------|---------------------------------------|-------------------15---|

|-20-19-17---------------------------------------------------------17-19-20-|
|---------20-19-17----------------------------------------17-19-20----------|
|------------------19-17-16----------------------16-17-19-------------------|
|---------------------------19-17-16----16-17-16----------------------------|
|------------------------------------19-------------------------------------|
|---------------------------------------------------------------------------|

                                                             
|-22-20-19----------20-19-17----------------------------17-19-20-19-20-22-|
|----------22-20-19----------20-19-17----------17-19-20-------------------|
|-------------------------------------16-17-19----------------------------|
|-------------------------------------------------------------------------|
|-------------------------------------------------------------------------|
|-------------------------------------------------------------------------|

  DRINK TO THE POWER!     DRINK TO THE SOUND! 
|-22b24---------------------------------------|
|---------------------------------------------|
|---------------------------------------------|
|---------------------------------------------|
|---------------------------------------------|
|---------------------------------------------|

The rest of the song is quite easy to figure out
Tap to rate this tab
 
# A B C D E F G H I J K L M N O P Q R S T U V W X Y Z