Manowar - Sons Of Odin tab

Hi there! this is my first tab ever...and I'm proud to say it's a MANOWAR's song, 
and a damn great too. So hope you like it, I don't know if the lyrics are 
perfectly right, but...well the tab is, so enjoy!

Intro

|-------------------------------------------------------------------|
|-------------------------------------------------------------------|
|-2---------2-5\--2---------2-5\------------------------------------|
|-2---------2-5\--2---------2-5\------------------------------------|
|-0-0-0-0-0-0-----0-0-0-0-0-0-----5-----------5---------------------|
|---------------------------------3-3-3-3-3-3-3-3-3-3-3-3-----------|
    . . . .         . . . .         . . . . .   . . . . .
|-------------------------------------------------------------------|
|-------------------------------------------------------------------|
|-------------5-5---------------------------------------------------|
|-5---------5-5-5---------------------------------------------------|
|-3-3-3-3-3-3-3-3---------------------------------------------------|
|-------------------------------------------------------------------|
    . . . .

RIFF 1: X2
|-------------------------------------------------------------------|
|-------------------------------------------------------------------|
|-------------------------------------------------------------------|
|-------------------------------------------------------------------|
|-7-------7---7\5/7-------7-9--10-------10-10-9-7-5-------5---------|
|-5-5-5-5-5-5-5\3/5-5-5-5-5-7---8-8-8-8--8--8-7-5-3-3-3-3-3-3-5-7---|
    . . .   .       . . .         . . .             . . .   . . .

Here to the….

|-------------------------------------------------------------------|
|-------------------------------------------------------------------|
|-------------------------------------------------------------------|
|-------------------------------------------------------------------|
|7-------7-------7-------7-------5-------5-------5------------------|
|5-5-5-5-5-5-5-5-5-5-5-5-5-5-5-5-3-3-3-3-3-3-3-3-3-3-3-3-3-3-3-3-3-3|

Glory and fame..

|-------------------------------------------------------------------|
|-------------------------------------------------------------------|
|-------------------------------------------------------------------|
|-------------------------------------------------------------------|
|-7-------7---7\5/7-------7-9--10-------10-10-9-7-5-------5---------|
|-5-5-5-5-5-5-5\3/5-5-5-5-5-7---8-8-8-8--8--8-7-5-3-3-3-3-3-3-5-7---|

One day too, I may fall...

|-------------------------------------------------------------------|
|-------------------------------------------------------------------|
|-------------------------------------------------------------------|
|-------------------------------------------------------------------|
|7-------7-------7-------7-------5-------5-------5------------------|
|5-5-5-5-5-5-5-5-5-5-5-5-5-5-5-5-3-3-3-3-3-3-3-3-3-3-3-3-3-3-3-3-3-3|


Glory and fame, blood…


|-------------------------------------------------------------------|
|-------------------------------------------------------------------|
|-------------------------------------------------------------------|
|-------------------------------------------------------------------|
|-7-------7---7\5/7-------7-9--10-------10-10-9-7-5-------5---------|
|-5-5-5-5-5-5-5\3/5-5-5-5-5-7---8-8-8-8--8--8-7-5-3-3-3-3-3-3-5-7---|
    . . .   .       . . .         . . .             . . .   . . .

sons of the gods…


|-------------------------------------------------------------------|
|-------------------------------------------------------------------|
|-------------------------------------------------------------------|
|-----------------5--------------------------------2-2-2-2----------|
|-7-------5-------3-3-3-3-5--------7-------5-------2-2-2-2----------|
|-5-5-5-5-3-3-3-3---------3-3-3-3--5-5-5-5-3-3-3-3-0-0-0-0----------|

|-------------------------------------------------------------------|
|-------------------------------------------------------------------|
|-------------------------------------------------------------------|
|-5-------4------------------------3--5--7--------------------------|
|-3-3-3-3-2-2-2-2-7-------5--------3--5--7--------------------------|
|-----------------5-5-5-5-3-3-3-3--1--3--5--------------------------|
    . . .   . . .   . . .   . . .

|-------------------------------------------------------------------|
|-------------------------------------------------------------------|
|-------------------5\--------------------5\------------------------|
|-------------------5\--------------------5\------------------------|
|-0-0-0-0-0-0-0-0-0-----0-0-0-0-0-0-0-0-0---------------------------|
|-------------------------------------------------------------------|
  . . . . . . . . .     . . . . . . . . .
|-------------------------------------------------------------------|
|-------------------------------------------------------------------|
|-------------------------------------------------------------------|
|-------------------------------------------------------------------|
|-3-3-3-3-3-3-3-3-3-3-3-3-3-3-3-3-3-3-3-3-3-3-3-3-------------------|
|-------------------------------------------------------------------|

SOLO RHYTM:

|-------------------------------------------------------------------|
|-------------------------------------------------------------------|
|-------------------------------------------------------------------|
|---------------------------------------------------------5-5-------|     
|-7-------7-------7-------7-------5-------5-------5-------5-5-------|
|-5-5-5-5-5-5-5-5-5-5-5-5-5-5-5-5-3-3-3-3-3-3-3-3-3-3-3-3-3-3-------|
    . . .   . . .   . . .   . . .   . . .   . . .   . . .
|-------------------------------------------------------------------|
|-------------------------------------------------------------------|
|-------------------------------------------------------------------|
|-7-------7-------7-------7-------------------------------7-9-------|
|-5-5-5-5-5-5-5-5-5-5-5-5-5-5-5-5-7-------7-------7-------7-9-------|
|---------------------------------5-5-5-5-5-5-5-5-5-5-5-5-5-7-------|
    . . .   . . .   . . .   . . .   . . .   . . .   . . .

|-------------------------------------------------------------------|
|-------------------------------------------------------------------|
|-------------------------------------------------------------------|
|-5-------5-------5-------5-------------------------------5-7-------|
|-3-3-3-3-3-3-3-3-3-3-3-3-3-3-3-3-5-------5-------5-------5-7-------|
|---------------------------------3-3-3-3-3-3-3-3-3-3-3-3-3-5-------|
    . . .   . . .   . . .   . . .   . . .   . . .   . . .


|-------------------------------------------------------------------|
|-------------------------------------------------------------------|
|-------------------------------------------------------------------|
|-3-------3-------3-------3-------3--4--5---------------------------|
|-1-1-1-1-1-1-1-1-1-1-1-1-1-1-1-1-3--4--5---------------------------|
|---------------------------------1--2--3---------------------------|
    . . .   . . .   . . .   . . .


HAIL TO THE BRAVE
Tap to rate this tab
 
# A B C D E F G H I J K L M N O P Q R S T U V W X Y Z