Song name
# A B C D E F G H I J K L M N O P Q R S T U V W X Y Z

Manowar - El Gringo tab

Title: El Gringo
Album: Lord Of Steel
Artist: Manowar

TAB Created by: Liran Puterman

i used standard tuning but i think Logan plays different, it's pretty close try and enjoy
this is a grate song...HAIL AND KILL!!!


START:
E |-------------------------------------------------------------------------|
B |-------------------------------------------------------------------------|
G |-------------------------------------------------------------------------|
D |-----------------------9-----------7-------------------------------------|
A |--7-----9--10----------------------------------9-----------5s0-----------|
E |-------------------------------------------------------------------------|

E |-------------------------------------------------------------------------|
B |-------------------------------------------------------------------------|
G |-------------------------------------------------------------------------|
D |-------------------------------------------------------------------------|
A |--7-----9--10----------7---9---10-----12-----14----12-----12h14--12h14-X4|
E |-------------------------------------------------------------------------|

CHORDS: you could try play from the E on 5th string
E |-------------------------------------------------------------------------|
B |-------------------------------------------------------------------------|
G |-------------------------------------------------------------------------|
D |--14-----12-----10-----9-------------------------------------------------|
A |--14-----12-----10-----9-------------------------------------------------|
E |--12-----10-----8------7-------------------------------------------------|

Chorus:
E |-------------------------------------------------------------------------|
B |-------------------------------------------------------------------------|
G |--5-----4-----------4-----5-----7------------4-----5----7----------------|
D |--5-----4-----5-----4-----5-----7-----5------4-----5----7----------------|
A |--3-----2-----5-----2-----3-----5-----5------2-----3----5----------------|
E |--------------3-----------------------3----------------------------------|

i would like to get any fixes for this tab (it's my first), 
you can send to liranp1@yahoo.com or find me in Facebook.

Tap to rate this tab
# A B C D E F G H I J K L M N O P Q R S T U V W X Y Z